ISO-10303-21;
HEADER;
/* Generated by software containing ST-Developer
 * from STEP Tools, Inc. (www.steptools.com) 
 */

FILE_DESCRIPTION(
/* description */ (''),
/* implementation_level */ '2;1');

FILE_NAME(
/* name */ 'Support feux LED.step',
/* time_stamp */ '2023-06-26T17:35:40+02:00',
/* author */ (''),
/* organization */ (''),
/* preprocessor_version */ 'ST-DEVELOPER v19.2',
/* originating_system */ 'Autodesk Translation Framework v12.6.0.85',
/* authorisation */ '');

FILE_SCHEMA (('AUTOMOTIVE_DESIGN { 1 0 10303 214 3 1 1 }'));
ENDSEC;

DATA;
#10=MECHANICAL_DESIGN_GEOMETRIC_PRESENTATION_REPRESENTATION('',(#13),#640);
#11=SHAPE_REPRESENTATION_RELATIONSHIP('SRR','None',#647,#12);
#12=ADVANCED_BREP_SHAPE_REPRESENTATION('',(#14),#639);
#13=STYLED_ITEM('',(#656),#14);
#14=MANIFOLD_SOLID_BREP('Corps1',#376);
#15=FACE_BOUND('',#54,.T.);
#16=FACE_BOUND('',#55,.T.);
#17=FACE_BOUND('',#56,.T.);
#18=FACE_BOUND('',#62,.T.);
#19=FACE_BOUND('',#63,.T.);
#20=FACE_BOUND('',#64,.T.);
#21=PLANE('',#393);
#22=PLANE('',#394);
#23=PLANE('',#406);
#24=PLANE('',#407);
#25=PLANE('',#408);
#26=PLANE('',#414);
#27=PLANE('',#415);
#28=PLANE('',#416);
#29=PLANE('',#417);
#30=PLANE('',#420);
#31=PLANE('',#423);
#32=FACE_OUTER_BOUND('',#51,.T.);
#33=FACE_OUTER_BOUND('',#52,.T.);
#34=FACE_OUTER_BOUND('',#53,.T.);
#35=FACE_OUTER_BOUND('',#57,.T.);
#36=FACE_OUTER_BOUND('',#58,.T.);
#37=FACE_OUTER_BOUND('',#59,.T.);
#38=FACE_OUTER_BOUND('',#60,.T.);
#39=FACE_OUTER_BOUND('',#61,.T.);
#40=FACE_OUTER_BOUND('',#65,.T.);
#41=FACE_OUTER_BOUND('',#66,.T.);
#42=FACE_OUTER_BOUND('',#67,.T.);
#43=FACE_OUTER_BOUND('',#68,.T.);
#44=FACE_OUTER_BOUND('',#69,.T.);
#45=FACE_OUTER_BOUND('',#70,.T.);
#46=FACE_OUTER_BOUND('',#71,.T.);
#47=FACE_OUTER_BOUND('',#72,.T.);
#48=FACE_OUTER_BOUND('',#73,.T.);
#49=FACE_OUTER_BOUND('',#74,.T.);
#50=FACE_OUTER_BOUND('',#75,.T.);
#51=EDGE_LOOP('',(#247,#248,#249,#250));
#52=EDGE_LOOP('',(#251,#252,#253,#254));
#53=EDGE_LOOP('',(#255,#256,#257,#258,#259,#260,#261,#262,#263,#264,#265,
#266,#267,#268));
#54=EDGE_LOOP('',(#269));
#55=EDGE_LOOP('',(#270));
#56=EDGE_LOOP('',(#271));
#57=EDGE_LOOP('',(#272,#273,#274,#275));
#58=EDGE_LOOP('',(#276,#277,#278,#279));
#59=EDGE_LOOP('',(#280,#281,#282,#283));
#60=EDGE_LOOP('',(#284,#285,#286,#287));
#61=EDGE_LOOP('',(#288,#289,#290,#291,#292,#293,#294,#295,#296,#297,#298,
#299,#300,#301));
#62=EDGE_LOOP('',(#302));
#63=EDGE_LOOP('',(#303));
#64=EDGE_LOOP('',(#304));
#65=EDGE_LOOP('',(#305,#306,#307,#308));
#66=EDGE_LOOP('',(#309,#310,#311,#312));
#67=EDGE_LOOP('',(#313,#314,#315,#316));
#68=EDGE_LOOP('',(#317,#318,#319,#320));
#69=EDGE_LOOP('',(#321,#322,#323,#324));
#70=EDGE_LOOP('',(#325,#326,#327,#328));
#71=EDGE_LOOP('',(#329,#330,#331,#332));
#72=EDGE_LOOP('',(#333,#334,#335,#336));
#73=EDGE_LOOP('',(#337,#338,#339,#340));
#74=EDGE_LOOP('',(#341,#342,#343,#344));
#75=EDGE_LOOP('',(#345,#346,#347,#348));
#76=LINE('',#538,#111);
#77=LINE('',#541,#112);
#78=LINE('',#544,#113);
#79=LINE('',#546,#114);
#80=LINE('',#547,#115);
#81=LINE('',#550,#116);
#82=LINE('',#552,#117);
#83=LINE('',#554,#118);
#84=LINE('',#558,#119);
#85=LINE('',#562,#120);
#86=LINE('',#566,#121);
#87=LINE('',#568,#122);
#88=LINE('',#570,#123);
#89=LINE('',#581,#124);
#90=LINE('',#584,#125);
#91=LINE('',#588,#126);
#92=LINE('',#589,#127);
#93=LINE('',#592,#128);
#94=LINE('',#593,#129);
#95=LINE('',#596,#130);
#96=LINE('',#598,#131);
#97=LINE('',#602,#132);
#98=LINE('',#606,#133);
#99=LINE('',#610,#134);
#100=LINE('',#611,#135);
#101=LINE('',#617,#136);
#102=LINE('',#619,#137);
#103=LINE('',#621,#138);
#104=LINE('',#623,#139);
#105=LINE('',#625,#140);
#106=LINE('',#627,#141);
#107=LINE('',#629,#142);
#108=LINE('',#630,#143);
#109=LINE('',#633,#144);
#110=LINE('',#635,#145);
#111=VECTOR('',#431,10.);
#112=VECTOR('',#434,10.);
#113=VECTOR('',#437,10.);
#114=VECTOR('',#438,10.);
#115=VECTOR('',#439,10.);
#116=VECTOR('',#442,10.);
#117=VECTOR('',#443,10.);
#118=VECTOR('',#444,10.);
#119=VECTOR('',#447,10.);
#120=VECTOR('',#450,10.);
#121=VECTOR('',#453,10.);
#122=VECTOR('',#454,10.);
#123=VECTOR('',#455,10.);
#124=VECTOR('',#468,10.);
#125=VECTOR('',#471,3.25);
#126=VECTOR('',#476,10.);
#127=VECTOR('',#477,10.);
#128=VECTOR('',#480,10.);
#129=VECTOR('',#481,10.);
#130=VECTOR('',#484,10.);
#131=VECTOR('',#485,10.);
#132=VECTOR('',#488,10.);
#133=VECTOR('',#491,10.);
#134=VECTOR('',#494,10.);
#135=VECTOR('',#495,10.);
#136=VECTOR('',#502,10.);
#137=VECTOR('',#505,10.);
#138=VECTOR('',#508,10.);
#139=VECTOR('',#511,10.);
#140=VECTOR('',#514,5.1);
#141=VECTOR('',#517,14.5);
#142=VECTOR('',#520,10.);
#143=VECTOR('',#521,10.);
#144=VECTOR('',#526,10.);
#145=VECTOR('',#529,10.);
#146=CIRCLE('',#391,12.);
#147=CIRCLE('',#392,12.);
#148=CIRCLE('',#395,22.5);
#149=CIRCLE('',#396,5.);
#150=CIRCLE('',#397,4.99999999999998);
#151=CIRCLE('',#398,12.);
#152=CIRCLE('',#399,3.25);
#153=CIRCLE('',#400,14.5);
#154=CIRCLE('',#401,5.1);
#155=CIRCLE('',#403,12.);
#156=CIRCLE('',#405,3.25);
#157=CIRCLE('',#409,4.99999999999998);
#158=CIRCLE('',#410,5.);
#159=CIRCLE('',#411,22.5);
#160=CIRCLE('',#412,14.5);
#161=CIRCLE('',#413,5.1);
#162=VERTEX_POINT('',#534);
#163=VERTEX_POINT('',#535);
#164=VERTEX_POINT('',#537);
#165=VERTEX_POINT('',#539);
#166=VERTEX_POINT('',#543);
#167=VERTEX_POINT('',#545);
#168=VERTEX_POINT('',#549);
#169=VERTEX_POINT('',#551);
#170=VERTEX_POINT('',#553);
#171=VERTEX_POINT('',#555);
#172=VERTEX_POINT('',#557);
#173=VERTEX_POINT('',#559);
#174=VERTEX_POINT('',#561);
#175=VERTEX_POINT('',#563);
#176=VERTEX_POINT('',#565);
#177=VERTEX_POINT('',#567);
#178=VERTEX_POINT('',#569);
#179=VERTEX_POINT('',#572);
#180=VERTEX_POINT('',#574);
#181=VERTEX_POINT('',#576);
#182=VERTEX_POINT('',#579);
#183=VERTEX_POINT('',#583);
#184=VERTEX_POINT('',#587);
#185=VERTEX_POINT('',#591);
#186=VERTEX_POINT('',#595);
#187=VERTEX_POINT('',#597);
#188=VERTEX_POINT('',#599);
#189=VERTEX_POINT('',#601);
#190=VERTEX_POINT('',#603);
#191=VERTEX_POINT('',#605);
#192=VERTEX_POINT('',#607);
#193=VERTEX_POINT('',#609);
#194=VERTEX_POINT('',#612);
#195=VERTEX_POINT('',#614);
#196=EDGE_CURVE('',#162,#163,#146,.T.);
#197=EDGE_CURVE('',#163,#164,#76,.T.);
#198=EDGE_CURVE('',#164,#165,#147,.T.);
#199=EDGE_CURVE('',#165,#162,#77,.T.);
#200=EDGE_CURVE('',#163,#166,#78,.T.);
#201=EDGE_CURVE('',#167,#166,#79,.T.);
#202=EDGE_CURVE('',#167,#164,#80,.T.);
#203=EDGE_CURVE('',#168,#162,#81,.T.);
#204=EDGE_CURVE('',#169,#168,#82,.T.);
#205=EDGE_CURVE('',#169,#170,#83,.T.);
#206=EDGE_CURVE('',#170,#171,#148,.T.);
#207=EDGE_CURVE('',#171,#172,#84,.T.);
#208=EDGE_CURVE('',#172,#173,#149,.T.);
#209=EDGE_CURVE('',#173,#174,#85,.T.);
#210=EDGE_CURVE('',#174,#175,#150,.T.);
#211=EDGE_CURVE('',#175,#176,#86,.T.);
#212=EDGE_CURVE('',#176,#177,#87,.T.);
#213=EDGE_CURVE('',#177,#178,#88,.T.);
#214=EDGE_CURVE('',#166,#178,#151,.T.);
#215=EDGE_CURVE('',#179,#179,#152,.T.);
#216=EDGE_CURVE('',#180,#180,#153,.T.);
#217=EDGE_CURVE('',#181,#181,#154,.T.);
#218=EDGE_CURVE('',#182,#167,#155,.T.);
#219=EDGE_CURVE('',#178,#182,#89,.T.);
#220=EDGE_CURVE('',#179,#183,#90,.T.);
#221=EDGE_CURVE('',#183,#183,#156,.T.);
#222=EDGE_CURVE('',#184,#177,#91,.T.);
#223=EDGE_CURVE('',#184,#182,#92,.T.);
#224=EDGE_CURVE('',#185,#165,#93,.T.);
#225=EDGE_CURVE('',#185,#168,#94,.T.);
#226=EDGE_CURVE('',#186,#184,#95,.T.);
#227=EDGE_CURVE('',#186,#187,#96,.T.);
#228=EDGE_CURVE('',#188,#187,#157,.T.);
#229=EDGE_CURVE('',#188,#189,#97,.T.);
#230=EDGE_CURVE('',#190,#189,#158,.T.);
#231=EDGE_CURVE('',#190,#191,#98,.T.);
#232=EDGE_CURVE('',#192,#191,#159,.T.);
#233=EDGE_CURVE('',#192,#193,#99,.T.);
#234=EDGE_CURVE('',#193,#185,#100,.T.);
#235=EDGE_CURVE('',#194,#194,#160,.T.);
#236=EDGE_CURVE('',#195,#195,#161,.T.);
#237=EDGE_CURVE('',#169,#193,#101,.T.);
#238=EDGE_CURVE('',#186,#176,#102,.T.);
#239=EDGE_CURVE('',#192,#170,#103,.T.);
#240=EDGE_CURVE('',#187,#175,#104,.T.);
#241=EDGE_CURVE('',#181,#195,#105,.T.);
#242=EDGE_CURVE('',#180,#194,#106,.T.);
#243=EDGE_CURVE('',#190,#172,#107,.T.);
#244=EDGE_CURVE('',#191,#171,#108,.T.);
#245=EDGE_CURVE('',#188,#174,#109,.T.);
#246=EDGE_CURVE('',#189,#173,#110,.T.);
#247=ORIENTED_EDGE('',*,*,#196,.T.);
#248=ORIENTED_EDGE('',*,*,#197,.T.);
#249=ORIENTED_EDGE('',*,*,#198,.T.);
#250=ORIENTED_EDGE('',*,*,#199,.T.);
#251=ORIENTED_EDGE('',*,*,#197,.F.);
#252=ORIENTED_EDGE('',*,*,#200,.T.);
#253=ORIENTED_EDGE('',*,*,#201,.F.);
#254=ORIENTED_EDGE('',*,*,#202,.T.);
#255=ORIENTED_EDGE('',*,*,#196,.F.);
#256=ORIENTED_EDGE('',*,*,#203,.F.);
#257=ORIENTED_EDGE('',*,*,#204,.F.);
#258=ORIENTED_EDGE('',*,*,#205,.T.);
#259=ORIENTED_EDGE('',*,*,#206,.T.);
#260=ORIENTED_EDGE('',*,*,#207,.T.);
#261=ORIENTED_EDGE('',*,*,#208,.T.);
#262=ORIENTED_EDGE('',*,*,#209,.T.);
#263=ORIENTED_EDGE('',*,*,#210,.T.);
#264=ORIENTED_EDGE('',*,*,#211,.T.);
#265=ORIENTED_EDGE('',*,*,#212,.T.);
#266=ORIENTED_EDGE('',*,*,#213,.T.);
#267=ORIENTED_EDGE('',*,*,#214,.F.);
#268=ORIENTED_EDGE('',*,*,#200,.F.);
#269=ORIENTED_EDGE('',*,*,#215,.T.);
#270=ORIENTED_EDGE('',*,*,#216,.T.);
#271=ORIENTED_EDGE('',*,*,#217,.T.);
#272=ORIENTED_EDGE('',*,*,#218,.T.);
#273=ORIENTED_EDGE('',*,*,#201,.T.);
#274=ORIENTED_EDGE('',*,*,#214,.T.);
#275=ORIENTED_EDGE('',*,*,#219,.T.);
#276=ORIENTED_EDGE('',*,*,#215,.F.);
#277=ORIENTED_EDGE('',*,*,#220,.T.);
#278=ORIENTED_EDGE('',*,*,#221,.F.);
#279=ORIENTED_EDGE('',*,*,#220,.F.);
#280=ORIENTED_EDGE('',*,*,#219,.F.);
#281=ORIENTED_EDGE('',*,*,#213,.F.);
#282=ORIENTED_EDGE('',*,*,#222,.F.);
#283=ORIENTED_EDGE('',*,*,#223,.T.);
#284=ORIENTED_EDGE('',*,*,#199,.F.);
#285=ORIENTED_EDGE('',*,*,#224,.F.);
#286=ORIENTED_EDGE('',*,*,#225,.T.);
#287=ORIENTED_EDGE('',*,*,#203,.T.);
#288=ORIENTED_EDGE('',*,*,#198,.F.);
#289=ORIENTED_EDGE('',*,*,#202,.F.);
#290=ORIENTED_EDGE('',*,*,#218,.F.);
#291=ORIENTED_EDGE('',*,*,#223,.F.);
#292=ORIENTED_EDGE('',*,*,#226,.F.);
#293=ORIENTED_EDGE('',*,*,#227,.T.);
#294=ORIENTED_EDGE('',*,*,#228,.F.);
#295=ORIENTED_EDGE('',*,*,#229,.T.);
#296=ORIENTED_EDGE('',*,*,#230,.F.);
#297=ORIENTED_EDGE('',*,*,#231,.T.);
#298=ORIENTED_EDGE('',*,*,#232,.F.);
#299=ORIENTED_EDGE('',*,*,#233,.T.);
#300=ORIENTED_EDGE('',*,*,#234,.T.);
#301=ORIENTED_EDGE('',*,*,#224,.T.);
#302=ORIENTED_EDGE('',*,*,#221,.T.);
#303=ORIENTED_EDGE('',*,*,#235,.F.);
#304=ORIENTED_EDGE('',*,*,#236,.T.);
#305=ORIENTED_EDGE('',*,*,#237,.F.);
#306=ORIENTED_EDGE('',*,*,#204,.T.);
#307=ORIENTED_EDGE('',*,*,#225,.F.);
#308=ORIENTED_EDGE('',*,*,#234,.F.);
#309=ORIENTED_EDGE('',*,*,#222,.T.);
#310=ORIENTED_EDGE('',*,*,#212,.F.);
#311=ORIENTED_EDGE('',*,*,#238,.F.);
#312=ORIENTED_EDGE('',*,*,#226,.T.);
#313=ORIENTED_EDGE('',*,*,#237,.T.);
#314=ORIENTED_EDGE('',*,*,#233,.F.);
#315=ORIENTED_EDGE('',*,*,#239,.T.);
#316=ORIENTED_EDGE('',*,*,#205,.F.);
#317=ORIENTED_EDGE('',*,*,#238,.T.);
#318=ORIENTED_EDGE('',*,*,#211,.F.);
#319=ORIENTED_EDGE('',*,*,#240,.F.);
#320=ORIENTED_EDGE('',*,*,#227,.F.);
#321=ORIENTED_EDGE('',*,*,#217,.F.);
#322=ORIENTED_EDGE('',*,*,#241,.T.);
#323=ORIENTED_EDGE('',*,*,#236,.F.);
#324=ORIENTED_EDGE('',*,*,#241,.F.);
#325=ORIENTED_EDGE('',*,*,#216,.F.);
#326=ORIENTED_EDGE('',*,*,#242,.T.);
#327=ORIENTED_EDGE('',*,*,#235,.T.);
#328=ORIENTED_EDGE('',*,*,#242,.F.);
#329=ORIENTED_EDGE('',*,*,#231,.F.);
#330=ORIENTED_EDGE('',*,*,#243,.T.);
#331=ORIENTED_EDGE('',*,*,#207,.F.);
#332=ORIENTED_EDGE('',*,*,#244,.F.);
#333=ORIENTED_EDGE('',*,*,#232,.T.);
#334=ORIENTED_EDGE('',*,*,#244,.T.);
#335=ORIENTED_EDGE('',*,*,#206,.F.);
#336=ORIENTED_EDGE('',*,*,#239,.F.);
#337=ORIENTED_EDGE('',*,*,#228,.T.);
#338=ORIENTED_EDGE('',*,*,#240,.T.);
#339=ORIENTED_EDGE('',*,*,#210,.F.);
#340=ORIENTED_EDGE('',*,*,#245,.F.);
#341=ORIENTED_EDGE('',*,*,#229,.F.);
#342=ORIENTED_EDGE('',*,*,#245,.T.);
#343=ORIENTED_EDGE('',*,*,#209,.F.);
#344=ORIENTED_EDGE('',*,*,#246,.F.);
#345=ORIENTED_EDGE('',*,*,#230,.T.);
#346=ORIENTED_EDGE('',*,*,#246,.T.);
#347=ORIENTED_EDGE('',*,*,#208,.F.);
#348=ORIENTED_EDGE('',*,*,#243,.F.);
#349=CYLINDRICAL_SURFACE('',#390,12.);
#350=CYLINDRICAL_SURFACE('',#402,12.);
#351=CYLINDRICAL_SURFACE('',#404,3.25);
#352=CYLINDRICAL_SURFACE('',#418,5.1);
#353=CYLINDRICAL_SURFACE('',#419,14.5);
#354=CYLINDRICAL_SURFACE('',#421,22.5);
#355=CYLINDRICAL_SURFACE('',#422,4.99999999999998);
#356=CYLINDRICAL_SURFACE('',#424,5.);
#357=ADVANCED_FACE('',(#32),#349,.T.);
#358=ADVANCED_FACE('',(#33),#21,.T.);
#359=ADVANCED_FACE('',(#34,#15,#16,#17),#22,.T.);
#360=ADVANCED_FACE('',(#35),#350,.T.);
#361=ADVANCED_FACE('',(#36),#351,.F.);
#362=ADVANCED_FACE('',(#37),#23,.T.);
#363=ADVANCED_FACE('',(#38),#24,.T.);
#364=ADVANCED_FACE('',(#39,#18,#19,#20),#25,.F.);
#365=ADVANCED_FACE('',(#40),#26,.T.);
#366=ADVANCED_FACE('',(#41),#27,.T.);
#367=ADVANCED_FACE('',(#42),#28,.T.);
#368=ADVANCED_FACE('',(#43),#29,.T.);
#369=ADVANCED_FACE('',(#44),#352,.F.);
#370=ADVANCED_FACE('',(#45),#353,.F.);
#371=ADVANCED_FACE('',(#46),#30,.T.);
#372=ADVANCED_FACE('',(#47),#354,.T.);
#373=ADVANCED_FACE('',(#48),#355,.T.);
#374=ADVANCED_FACE('',(#49),#31,.T.);
#375=ADVANCED_FACE('',(#50),#356,.T.);
#376=CLOSED_SHELL('',(#357,#358,#359,#360,#361,#362,#363,#364,#365,#366,
#367,#368,#369,#370,#371,#372,#373,#374,#375));
#377=DERIVED_UNIT_ELEMENT(#379,1.);
#378=DERIVED_UNIT_ELEMENT(#642,-3.);
#379=(
MASS_UNIT()
NAMED_UNIT(*)
SI_UNIT(.KILO.,.GRAM.)
);
#380=DERIVED_UNIT((#377,#378));
#381=MEASURE_REPRESENTATION_ITEM('density measure',
POSITIVE_RATIO_MEASURE(7850.),#380);
#382=PROPERTY_DEFINITION_REPRESENTATION(#387,#384);
#383=PROPERTY_DEFINITION_REPRESENTATION(#388,#385);
#384=REPRESENTATION('material name',(#386),#639);
#385=REPRESENTATION('density',(#381),#639);
#386=DESCRIPTIVE_REPRESENTATION_ITEM('Acier','Acier');
#387=PROPERTY_DEFINITION('material property','material name',#649);
#388=PROPERTY_DEFINITION('material property','density of part',#649);
#389=AXIS2_PLACEMENT_3D('',#532,#425,#426);
#390=AXIS2_PLACEMENT_3D('',#533,#427,#428);
#391=AXIS2_PLACEMENT_3D('',#536,#429,#430);
#392=AXIS2_PLACEMENT_3D('',#540,#432,#433);
#393=AXIS2_PLACEMENT_3D('',#542,#435,#436);
#394=AXIS2_PLACEMENT_3D('',#548,#440,#441);
#395=AXIS2_PLACEMENT_3D('',#556,#445,#446);
#396=AXIS2_PLACEMENT_3D('',#560,#448,#449);
#397=AXIS2_PLACEMENT_3D('',#564,#451,#452);
#398=AXIS2_PLACEMENT_3D('',#571,#456,#457);
#399=AXIS2_PLACEMENT_3D('',#573,#458,#459);
#400=AXIS2_PLACEMENT_3D('',#575,#460,#461);
#401=AXIS2_PLACEMENT_3D('',#577,#462,#463);
#402=AXIS2_PLACEMENT_3D('',#578,#464,#465);
#403=AXIS2_PLACEMENT_3D('',#580,#466,#467);
#404=AXIS2_PLACEMENT_3D('',#582,#469,#470);
#405=AXIS2_PLACEMENT_3D('',#585,#472,#473);
#406=AXIS2_PLACEMENT_3D('',#586,#474,#475);
#407=AXIS2_PLACEMENT_3D('',#590,#478,#479);
#408=AXIS2_PLACEMENT_3D('',#594,#482,#483);
#409=AXIS2_PLACEMENT_3D('',#600,#486,#487);
#410=AXIS2_PLACEMENT_3D('',#604,#489,#490);
#411=AXIS2_PLACEMENT_3D('',#608,#492,#493);
#412=AXIS2_PLACEMENT_3D('',#613,#496,#497);
#413=AXIS2_PLACEMENT_3D('',#615,#498,#499);
#414=AXIS2_PLACEMENT_3D('',#616,#500,#501);
#415=AXIS2_PLACEMENT_3D('',#618,#503,#504);
#416=AXIS2_PLACEMENT_3D('',#620,#506,#507);
#417=AXIS2_PLACEMENT_3D('',#622,#509,#510);
#418=AXIS2_PLACEMENT_3D('',#624,#512,#513);
#419=AXIS2_PLACEMENT_3D('',#626,#515,#516);
#420=AXIS2_PLACEMENT_3D('',#628,#518,#519);
#421=AXIS2_PLACEMENT_3D('',#631,#522,#523);
#422=AXIS2_PLACEMENT_3D('',#632,#524,#525);
#423=AXIS2_PLACEMENT_3D('',#634,#527,#528);
#424=AXIS2_PLACEMENT_3D('',#636,#530,#531);
#425=DIRECTION('axis',(0.,0.,1.));
#426=DIRECTION('refdir',(1.,0.,0.));
#427=DIRECTION('center_axis',(0.,0.,1.));
#428=DIRECTION('ref_axis',(-0.173857046952535,-0.984770900882507,0.));
#429=DIRECTION('center_axis',(0.,0.,-1.));
#430=DIRECTION('ref_axis',(-0.173857046952535,-0.984770900882507,0.));
#431=DIRECTION('',(0.,0.,-1.));
#432=DIRECTION('center_axis',(0.,0.,1.));
#433=DIRECTION('ref_axis',(-0.173857046952535,-0.984770900882507,0.));
#434=DIRECTION('',(0.,0.,1.));
#435=DIRECTION('center_axis',(-0.819273678786412,-0.573402685072,0.));
#436=DIRECTION('ref_axis',(0.,0.,1.));
#437=DIRECTION('',(-0.573402685072,0.819273678786412,0.));
#438=DIRECTION('',(1.13083740300514E-31,-1.61573243967799E-31,1.));
#439=DIRECTION('',(0.573402685072,-0.819273678786412,0.));
#440=DIRECTION('center_axis',(0.,0.,1.));
#441=DIRECTION('ref_axis',(1.,0.,0.));
#442=DIRECTION('',(-0.819273678786412,-0.573402685072,0.));
#443=DIRECTION('',(0.,-1.,0.));
#444=DIRECTION('',(1.,-3.96616408302279E-17,0.));
#445=DIRECTION('center_axis',(0.,0.,1.));
#446=DIRECTION('ref_axis',(-0.895806416477617,-0.444444444444444,0.));
#447=DIRECTION('',(-1.,0.,0.));
#448=DIRECTION('center_axis',(0.,0.,1.));
#449=DIRECTION('ref_axis',(0.,1.,0.));
#450=DIRECTION('',(0.,-1.,0.));
#451=DIRECTION('center_axis',(0.,0.,1.));
#452=DIRECTION('ref_axis',(-1.,1.99840144432529E-15,0.));
#453=DIRECTION('',(1.,-3.96616408302279E-17,0.));
#454=DIRECTION('',(0.,-1.,0.));
#455=DIRECTION('',(-0.819273678786412,-0.573402685072,0.));
#456=DIRECTION('center_axis',(0.,0.,-1.));
#457=DIRECTION('ref_axis',(-0.984770900882507,0.173857046952535,0.));
#458=DIRECTION('center_axis',(0.,0.,-1.));
#459=DIRECTION('ref_axis',(-1.,0.,0.));
#460=DIRECTION('center_axis',(0.,0.,-1.));
#461=DIRECTION('ref_axis',(1.,0.,0.));
#462=DIRECTION('center_axis',(0.,0.,-1.));
#463=DIRECTION('ref_axis',(-1.,0.,0.));
#464=DIRECTION('center_axis',(-1.13083740300514E-31,1.61573243967799E-31,
-1.));
#465=DIRECTION('ref_axis',(-0.984770900882507,0.173857046952535,0.));
#466=DIRECTION('center_axis',(0.,0.,1.));
#467=DIRECTION('ref_axis',(-0.984770900882507,0.173857046952535,0.));
#468=DIRECTION('',(-1.13083740300514E-31,1.61573243967799E-31,-1.));
#469=DIRECTION('center_axis',(0.,0.,-1.));
#470=DIRECTION('ref_axis',(-1.,0.,0.));
#471=DIRECTION('',(0.,0.,-1.));
#472=DIRECTION('center_axis',(0.,0.,1.));
#473=DIRECTION('ref_axis',(-1.,0.,0.));
#474=DIRECTION('center_axis',(-0.573402685072,0.819273678786412,1.97215226305253E-31));
#475=DIRECTION('ref_axis',(-2.42553733775474E-15,-1.69761296893019E-15,
-1.));
#476=DIRECTION('',(0.,0.,1.));
#477=DIRECTION('',(-0.819273678786412,-0.573402685072,0.));
#478=DIRECTION('center_axis',(0.573402685072,-0.819273678786412,0.));
#479=DIRECTION('ref_axis',(0.,0.,1.));
#480=DIRECTION('',(-0.819273678786412,-0.573402685072,0.));
#481=DIRECTION('',(0.,0.,1.));
#482=DIRECTION('center_axis',(0.,0.,1.));
#483=DIRECTION('ref_axis',(1.,0.,0.));
#484=DIRECTION('',(0.,-1.,0.));
#485=DIRECTION('',(-1.,3.96616408302279E-17,0.));
#486=DIRECTION('center_axis',(0.,0.,1.));
#487=DIRECTION('ref_axis',(-1.,1.99840144432529E-15,0.));
#488=DIRECTION('',(0.,1.,0.));
#489=DIRECTION('center_axis',(0.,0.,1.));
#490=DIRECTION('ref_axis',(0.,1.,0.));
#491=DIRECTION('',(1.,0.,0.));
#492=DIRECTION('center_axis',(0.,0.,1.));
#493=DIRECTION('ref_axis',(-0.895806416477617,-0.444444444444444,0.));
#494=DIRECTION('',(-1.,3.96616408302279E-17,0.));
#495=DIRECTION('',(0.,-1.,0.));
#496=DIRECTION('center_axis',(0.,0.,-1.));
#497=DIRECTION('ref_axis',(1.,0.,0.));
#498=DIRECTION('center_axis',(0.,0.,1.));
#499=DIRECTION('ref_axis',(-1.,0.,0.));
#500=DIRECTION('center_axis',(1.,0.,0.));
#501=DIRECTION('ref_axis',(0.,0.,1.));
#502=DIRECTION('',(0.,0.,-1.));
#503=DIRECTION('center_axis',(-1.,0.,0.));
#504=DIRECTION('ref_axis',(0.,0.,-1.));
#505=DIRECTION('',(0.,0.,1.));
#506=DIRECTION('center_axis',(-3.96616408302279E-17,-1.,0.));
#507=DIRECTION('ref_axis',(1.,-3.96616408302279E-17,0.));
#508=DIRECTION('',(0.,0.,1.));
#509=DIRECTION('center_axis',(-3.96616408302279E-17,-1.,0.));
#510=DIRECTION('ref_axis',(1.,-3.96616408302279E-17,0.));
#511=DIRECTION('',(0.,0.,1.));
#512=DIRECTION('center_axis',(0.,0.,-1.));
#513=DIRECTION('ref_axis',(-1.,0.,0.));
#514=DIRECTION('',(0.,0.,-1.));
#515=DIRECTION('center_axis',(0.,0.,1.));
#516=DIRECTION('ref_axis',(1.,0.,0.));
#517=DIRECTION('',(0.,0.,-1.));
#518=DIRECTION('center_axis',(0.,1.,0.));
#519=DIRECTION('ref_axis',(-1.,0.,0.));
#520=DIRECTION('',(0.,0.,1.));
#521=DIRECTION('',(0.,0.,1.));
#522=DIRECTION('center_axis',(0.,0.,1.));
#523=DIRECTION('ref_axis',(1.,-4.93432455388958E-17,0.));
#524=DIRECTION('center_axis',(0.,0.,1.));
#525=DIRECTION('ref_axis',(-1.,1.99840144432529E-15,0.));
#526=DIRECTION('',(0.,0.,1.));
#527=DIRECTION('center_axis',(-1.,0.,0.));
#528=DIRECTION('ref_axis',(0.,-1.,0.));
#529=DIRECTION('',(0.,0.,1.));
#530=DIRECTION('center_axis',(0.,0.,1.));
#531=DIRECTION('ref_axis',(0.,1.,0.));
#532=CARTESIAN_POINT('',(0.,0.,0.));
#533=CARTESIAN_POINT('Origin',(-46.6086955893564,-47.6229507604991,0.75));
#534=CARTESIAN_POINT('',(-39.7278633684924,-57.454234905936,3.));
#535=CARTESIAN_POINT('',(-56.4399797347933,-54.5037829813631,3.));
#536=CARTESIAN_POINT('Origin',(-46.6086955893564,-47.6229507604991,3.));
#537=CARTESIAN_POINT('',(-56.4399797347933,-54.5037829813631,0.));
#538=CARTESIAN_POINT('',(-56.4399797347933,-54.5037829813631,0.75));
#539=CARTESIAN_POINT('',(-39.7278633684924,-57.454234905936,0.));
#540=CARTESIAN_POINT('Origin',(-46.6086955893564,-47.6229507604991,0.));
#541=CARTESIAN_POINT('',(-39.7278633684924,-57.454234905936,0.75));
#542=CARTESIAN_POINT('Origin',(-56.5580622668171,-54.335067499329,1.5));
#543=CARTESIAN_POINT('',(-56.6761447988409,-54.166352017295,3.));
#544=CARTESIAN_POINT('',(-63.5569770197048,-44.3350678718581,3.));
#545=CARTESIAN_POINT('',(-56.6761447988409,-54.166352017295,0.));
#546=CARTESIAN_POINT('',(-56.6761447988409,-54.166352017295,2.25));
#547=CARTESIAN_POINT('',(-49.5591475139293,-64.3350671268,0.));
#548=CARTESIAN_POINT('Origin',(-28.179815386217,0.,3.));
#549=CARTESIAN_POINT('',(-29.077305544269,-50.,3.));
#550=CARTESIAN_POINT('',(-29.077305544269,-50.,3.));
#551=CARTESIAN_POINT('',(-29.077305544269,-10.,3.));
#552=CARTESIAN_POINT('',(-29.077305544269,-10.,3.));
#553=CARTESIAN_POINT('',(-19.0152751431803,-10.,3.));
#554=CARTESIAN_POINT('',(-19.0152751431803,-10.,3.));
#555=CARTESIAN_POINT('',(-19.0152751431803,10.,3.));
#556=CARTESIAN_POINT('Origin',(1.14036922756606,0.,3.));
#557=CARTESIAN_POINT('',(-75.,10.,3.));
#558=CARTESIAN_POINT('',(-75.,10.,3.));
#559=CARTESIAN_POINT('',(-80.,5.,3.));
#560=CARTESIAN_POINT('Origin',(-75.,5.,3.));
#561=CARTESIAN_POINT('',(-80.,-5.00000000000001,3.));
#562=CARTESIAN_POINT('',(-80.,-10.,3.));
#563=CARTESIAN_POINT('',(-75.,-10.,3.));
#564=CARTESIAN_POINT('Origin',(-75.,-5.00000000000002,3.));
#565=CARTESIAN_POINT('',(-43.0751350500446,-10.,3.));
#566=CARTESIAN_POINT('',(-19.0152751431803,-10.,3.));
#567=CARTESIAN_POINT('',(-43.0751350500446,-30.0000007450581,3.));
#568=CARTESIAN_POINT('',(-43.0751350500446,-10.,3.));
#569=CARTESIAN_POINT('',(-53.7256928742679,-37.4542356509941,3.));
#570=CARTESIAN_POINT('',(-43.0751350500446,-30.000000745058,3.));
#571=CARTESIAN_POINT('Origin',(-46.8448606534039,-47.285519796431,3.));
#572=CARTESIAN_POINT('',(-43.0671412819869,-47.167533935929,3.));
#573=CARTESIAN_POINT('Origin',(-46.3171412819869,-47.167533935929,3.));
#574=CARTESIAN_POINT('',(-13.3596307724339,-1.77573785876366E-15,3.));
#575=CARTESIAN_POINT('Origin',(1.14036922756606,0.,3.));
#576=CARTESIAN_POINT('',(-64.9,6.2456986756515E-16,3.));
#577=CARTESIAN_POINT('Origin',(-70.,0.,3.));
#578=CARTESIAN_POINT('Origin',(-46.8448606534039,-47.285519796431,2.25));
#579=CARTESIAN_POINT('',(-53.7256928742679,-37.4542356509941,0.));
#580=CARTESIAN_POINT('Origin',(-46.8448606534039,-47.285519796431,0.));
#581=CARTESIAN_POINT('',(-53.7256928742679,-37.4542356509941,2.25));
#582=CARTESIAN_POINT('Origin',(-46.3171412819869,-47.167533935929,3.));
#583=CARTESIAN_POINT('',(-43.0671412819869,-47.167533935929,0.));
#584=CARTESIAN_POINT('',(-43.0671412819869,-47.167533935929,3.));
#585=CARTESIAN_POINT('Origin',(-46.3171412819869,-47.167533935929,0.));
#586=CARTESIAN_POINT('Origin',(-43.0751350500446,-30.000000745058,3.));
#587=CARTESIAN_POINT('',(-43.0751350500446,-30.0000007450581,0.));
#588=CARTESIAN_POINT('',(-43.0751350500446,-30.0000007450581,3.));
#589=CARTESIAN_POINT('',(-43.0751350500446,-30.0000007450581,0.));
#590=CARTESIAN_POINT('Origin',(-29.077305544269,-50.,0.));
#591=CARTESIAN_POINT('',(-29.077305544269,-50.,0.));
#592=CARTESIAN_POINT('',(-29.077305544269,-50.,0.));
#593=CARTESIAN_POINT('',(-29.077305544269,-50.,3.));
#594=CARTESIAN_POINT('Origin',(-28.179815386217,0.,0.));
#595=CARTESIAN_POINT('',(-43.0751350500446,-10.,0.));
#596=CARTESIAN_POINT('',(-43.0751350500446,-10.,0.));
#597=CARTESIAN_POINT('',(-75.,-10.,0.));
#598=CARTESIAN_POINT('',(-19.0152751431803,-10.,0.));
#599=CARTESIAN_POINT('',(-80.,-5.00000000000001,0.));
#600=CARTESIAN_POINT('Origin',(-75.,-5.00000000000002,0.));
#601=CARTESIAN_POINT('',(-80.,5.,0.));
#602=CARTESIAN_POINT('',(-80.,-10.,0.));
#603=CARTESIAN_POINT('',(-75.,10.,0.));
#604=CARTESIAN_POINT('Origin',(-75.,5.,0.));
#605=CARTESIAN_POINT('',(-19.0152751431803,10.,0.));
#606=CARTESIAN_POINT('',(-75.,10.,0.));
#607=CARTESIAN_POINT('',(-19.0152751431803,-10.,0.));
#608=CARTESIAN_POINT('Origin',(1.14036922756606,0.,0.));
#609=CARTESIAN_POINT('',(-29.077305544269,-10.,0.));
#610=CARTESIAN_POINT('',(-19.0152751431803,-10.,0.));
#611=CARTESIAN_POINT('',(-29.077305544269,-10.,0.));
#612=CARTESIAN_POINT('',(-13.3596307724339,-1.77573785876366E-15,0.));
#613=CARTESIAN_POINT('Origin',(1.14036922756606,0.,0.));
#614=CARTESIAN_POINT('',(-64.9,6.2456986756515E-16,0.));
#615=CARTESIAN_POINT('Origin',(-70.,0.,0.));
#616=CARTESIAN_POINT('Origin',(-29.077305544269,-10.,0.));
#617=CARTESIAN_POINT('',(-29.077305544269,-10.,0.));
#618=CARTESIAN_POINT('Origin',(-43.0751350500446,-10.,3.));
#619=CARTESIAN_POINT('',(-43.0751350500446,-10.,1.5));
#620=CARTESIAN_POINT('Origin',(-75.,-10.,0.));
#621=CARTESIAN_POINT('',(-19.0152751431803,-10.,0.));
#622=CARTESIAN_POINT('Origin',(-75.,-10.,0.));
#623=CARTESIAN_POINT('',(-75.,-10.,0.));
#624=CARTESIAN_POINT('Origin',(-70.,0.,3.));
#625=CARTESIAN_POINT('',(-64.9,-6.2456986756515E-16,3.));
#626=CARTESIAN_POINT('Origin',(1.14036922756606,0.,0.));
#627=CARTESIAN_POINT('',(-13.3596307724339,-1.77573785876366E-15,0.));
#628=CARTESIAN_POINT('Origin',(-19.0152751431803,10.,0.));
#629=CARTESIAN_POINT('',(-75.,10.,0.));
#630=CARTESIAN_POINT('',(-19.0152751431803,10.,0.));
#631=CARTESIAN_POINT('Origin',(1.14036922756606,0.,0.));
#632=CARTESIAN_POINT('Origin',(-75.,-5.00000000000002,0.));
#633=CARTESIAN_POINT('',(-80.,-5.00000000000001,0.));
#634=CARTESIAN_POINT('Origin',(-80.,5.,0.));
#635=CARTESIAN_POINT('',(-80.,5.,0.));
#636=CARTESIAN_POINT('Origin',(-75.,5.,0.));
#637=UNCERTAINTY_MEASURE_WITH_UNIT(LENGTH_MEASURE(0.01),#641,
'DISTANCE_ACCURACY_VALUE',
'Maximum model space distance between geometric entities at asserted c
onnectivities');
#638=UNCERTAINTY_MEASURE_WITH_UNIT(LENGTH_MEASURE(0.01),#641,
'DISTANCE_ACCURACY_VALUE',
'Maximum model space distance between geometric entities at asserted c
onnectivities');
#639=(
GEOMETRIC_REPRESENTATION_CONTEXT(3)
GLOBAL_UNCERTAINTY_ASSIGNED_CONTEXT((#637))
GLOBAL_UNIT_ASSIGNED_CONTEXT((#641,#643,#644))
REPRESENTATION_CONTEXT('','3D')
);
#640=(
GEOMETRIC_REPRESENTATION_CONTEXT(3)
GLOBAL_UNCERTAINTY_ASSIGNED_CONTEXT((#638))
GLOBAL_UNIT_ASSIGNED_CONTEXT((#641,#643,#644))
REPRESENTATION_CONTEXT('','3D')
);
#641=(
LENGTH_UNIT()
NAMED_UNIT(*)
SI_UNIT(.MILLI.,.METRE.)
);
#642=(
LENGTH_UNIT()
NAMED_UNIT(*)
SI_UNIT($,.METRE.)
);
#643=(
NAMED_UNIT(*)
PLANE_ANGLE_UNIT()
SI_UNIT($,.RADIAN.)
);
#644=(
NAMED_UNIT(*)
SI_UNIT($,.STERADIAN.)
SOLID_ANGLE_UNIT()
);
#645=SHAPE_DEFINITION_REPRESENTATION(#646,#647);
#646=PRODUCT_DEFINITION_SHAPE('',$,#649);
#647=SHAPE_REPRESENTATION('',(#389),#639);
#648=PRODUCT_DEFINITION_CONTEXT('part definition',#653,'design');
#649=PRODUCT_DEFINITION('Support feux v1','Support feux v1 v5',#650,#648);
#650=PRODUCT_DEFINITION_FORMATION('',$,#655);
#651=PRODUCT_RELATED_PRODUCT_CATEGORY('Support feux v1 v5',
'Support feux v1 v5',(#655));
#652=APPLICATION_PROTOCOL_DEFINITION('international standard',
'automotive_design',2009,#653);
#653=APPLICATION_CONTEXT(
'Core Data for Automotive Mechanical Design Process');
#654=PRODUCT_CONTEXT('part definition',#653,'mechanical');
#655=PRODUCT('Support feux v1','Support feux v1 v5',$,(#654));
#656=PRESENTATION_STYLE_ASSIGNMENT((#657));
#657=SURFACE_STYLE_USAGE(.BOTH.,#658);
#658=SURFACE_SIDE_STYLE('',(#659));
#659=SURFACE_STYLE_FILL_AREA(#660);
#660=FILL_AREA_STYLE('Acier - Satin\X\E9',(#661));
#661=FILL_AREA_STYLE_COLOUR('Acier - Satin\X\E9',#662);
#662=COLOUR_RGB('Acier - Satin\X\E9',0.627450980392157,0.627450980392157,
0.627450980392157);
ENDSEC;
END-ISO-10303-21;
