ISO-10303-21;
HEADER;
/* Generated by software containing ST-Developer
 * from STEP Tools, Inc. (www.steptools.com) 
 */

FILE_DESCRIPTION(
/* description */ (''),
/* implementation_level */ '2;1');

FILE_NAME(
/* name */ 'Base v3 alu v1.step',
/* time_stamp */ '2023-06-15T23:39:31+02:00',
/* author */ (''),
/* organization */ (''),
/* preprocessor_version */ 'ST-DEVELOPER v19.2',
/* originating_system */ 'Autodesk Translation Framework v12.6.0.85',
/* authorisation */ '');

FILE_SCHEMA (('AUTOMOTIVE_DESIGN { 1 0 10303 214 3 1 1 }'));
ENDSEC;

DATA;
#10=MECHANICAL_DESIGN_GEOMETRIC_PRESENTATION_REPRESENTATION('',(#13),#323);
#11=SHAPE_REPRESENTATION_RELATIONSHIP('SRR','None',#330,#12);
#12=ADVANCED_BREP_SHAPE_REPRESENTATION('',(#14),#322);
#13=STYLED_ITEM('',(#339),#14);
#14=MANIFOLD_SOLID_BREP('Corps1',#171);
#15=FACE_BOUND('',#56,.T.);
#16=FACE_BOUND('',#59,.T.);
#17=FACE_BOUND('',#64,.T.);
#18=PLANE('',#197);
#19=PLANE('',#202);
#20=PLANE('',#209);
#21=CYLINDRICAL_SURFACE('',#195,20.0000002381283);
#22=CYLINDRICAL_SURFACE('',#204,19.0000002232282);
#23=CYLINDRICAL_SURFACE('',#207,62.9999999848283);
#24=CYLINDRICAL_SURFACE('',#211,16.9999999848283);
#25=LINE('',#284,#31);
#26=LINE('',#294,#32);
#27=LINE('',#306,#33);
#28=LINE('',#310,#34);
#29=LINE('',#314,#35);
#30=LINE('',#319,#36);
#31=VECTOR('',#226,20.0000398863847);
#32=VECTOR('',#239,20.0000002381283);
#33=VECTOR('',#256,19.0000002232282);
#34=VECTOR('',#261,41.4999952258891);
#35=VECTOR('',#266,62.9999999848283);
#36=VECTOR('',#273,16.9999999848283);
#37=CONICAL_SURFACE('',#189,20.0000398863847,7.06077291969469E-6);
#38=CONICAL_SURFACE('',#205,41.4999952258891,1.570756963356);
#39=FACE_OUTER_BOUND('',#51,.T.);
#40=FACE_OUTER_BOUND('',#52,.T.);
#41=FACE_OUTER_BOUND('',#53,.T.);
#42=FACE_OUTER_BOUND('',#54,.T.);
#43=FACE_OUTER_BOUND('',#55,.T.);
#44=FACE_OUTER_BOUND('',#57,.T.);
#45=FACE_OUTER_BOUND('',#58,.T.);
#46=FACE_OUTER_BOUND('',#60,.T.);
#47=FACE_OUTER_BOUND('',#61,.T.);
#48=FACE_OUTER_BOUND('',#62,.T.);
#49=FACE_OUTER_BOUND('',#63,.T.);
#50=FACE_OUTER_BOUND('',#65,.T.);
#51=EDGE_LOOP('',(#114,#115,#116,#117));
#52=EDGE_LOOP('',(#118,#119,#120,#121));
#53=EDGE_LOOP('',(#122,#123,#124,#125));
#54=EDGE_LOOP('',(#126,#127,#128,#129));
#55=EDGE_LOOP('',(#130));
#56=EDGE_LOOP('',(#131));
#57=EDGE_LOOP('',(#132,#133,#134,#135));
#58=EDGE_LOOP('',(#136));
#59=EDGE_LOOP('',(#137));
#60=EDGE_LOOP('',(#138,#139,#140,#141));
#61=EDGE_LOOP('',(#142,#143,#144,#145));
#62=EDGE_LOOP('',(#146,#147,#148,#149));
#63=EDGE_LOOP('',(#150));
#64=EDGE_LOOP('',(#151));
#65=EDGE_LOOP('',(#152,#153,#154,#155));
#66=CIRCLE('',#186,20.0000751837521);
#67=CIRCLE('',#187,2.5);
#68=CIRCLE('',#188,19.0000002232283);
#69=CIRCLE('',#190,19.9999904669499);
#70=CIRCLE('',#192,20.0000002381283);
#71=CIRCLE('',#193,0.5);
#72=CIRCLE('',#194,19.5000002381283);
#73=CIRCLE('',#196,20.0000002381283);
#74=CIRCLE('',#198,16.9999999848283);
#75=CIRCLE('',#200,19.5000002381283);
#76=CIRCLE('',#201,0.5);
#77=CIRCLE('',#203,19.0000002232282);
#78=CIRCLE('',#206,62.9999999848283);
#79=CIRCLE('',#208,62.9999999848283);
#80=CIRCLE('',#210,16.9999999848283);
#81=VERTEX_POINT('',#276);
#82=VERTEX_POINT('',#278);
#83=VERTEX_POINT('',#282);
#84=VERTEX_POINT('',#286);
#85=VERTEX_POINT('',#288);
#86=VERTEX_POINT('',#292);
#87=VERTEX_POINT('',#296);
#88=VERTEX_POINT('',#299);
#89=VERTEX_POINT('',#303);
#90=VERTEX_POINT('',#308);
#91=VERTEX_POINT('',#312);
#92=VERTEX_POINT('',#316);
#93=EDGE_CURVE('',#81,#81,#66,.T.);
#94=EDGE_CURVE('',#81,#82,#67,.T.);
#95=EDGE_CURVE('',#82,#82,#68,.T.);
#96=EDGE_CURVE('',#83,#83,#69,.T.);
#97=EDGE_CURVE('',#83,#81,#25,.T.);
#98=EDGE_CURVE('',#84,#84,#70,.T.);
#99=EDGE_CURVE('',#84,#85,#71,.T.);
#100=EDGE_CURVE('',#85,#85,#72,.T.);
#101=EDGE_CURVE('',#86,#86,#73,.T.);
#102=EDGE_CURVE('',#86,#84,#26,.T.);
#103=EDGE_CURVE('',#87,#87,#74,.T.);
#104=EDGE_CURVE('',#88,#88,#75,.T.);
#105=EDGE_CURVE('',#88,#86,#76,.T.);
#106=EDGE_CURVE('',#89,#89,#77,.T.);
#107=EDGE_CURVE('',#82,#89,#27,.T.);
#108=EDGE_CURVE('',#90,#90,#78,.T.);
#109=EDGE_CURVE('',#90,#83,#28,.T.);
#110=EDGE_CURVE('',#91,#91,#79,.T.);
#111=EDGE_CURVE('',#91,#90,#29,.T.);
#112=EDGE_CURVE('',#92,#92,#80,.T.);
#113=EDGE_CURVE('',#92,#87,#30,.T.);
#114=ORIENTED_EDGE('',*,*,#93,.T.);
#115=ORIENTED_EDGE('',*,*,#94,.T.);
#116=ORIENTED_EDGE('',*,*,#95,.T.);
#117=ORIENTED_EDGE('',*,*,#94,.F.);
#118=ORIENTED_EDGE('',*,*,#96,.F.);
#119=ORIENTED_EDGE('',*,*,#97,.T.);
#120=ORIENTED_EDGE('',*,*,#93,.F.);
#121=ORIENTED_EDGE('',*,*,#97,.F.);
#122=ORIENTED_EDGE('',*,*,#98,.T.);
#123=ORIENTED_EDGE('',*,*,#99,.T.);
#124=ORIENTED_EDGE('',*,*,#100,.T.);
#125=ORIENTED_EDGE('',*,*,#99,.F.);
#126=ORIENTED_EDGE('',*,*,#101,.F.);
#127=ORIENTED_EDGE('',*,*,#102,.T.);
#128=ORIENTED_EDGE('',*,*,#98,.F.);
#129=ORIENTED_EDGE('',*,*,#102,.F.);
#130=ORIENTED_EDGE('',*,*,#100,.F.);
#131=ORIENTED_EDGE('',*,*,#103,.T.);
#132=ORIENTED_EDGE('',*,*,#104,.T.);
#133=ORIENTED_EDGE('',*,*,#105,.T.);
#134=ORIENTED_EDGE('',*,*,#101,.T.);
#135=ORIENTED_EDGE('',*,*,#105,.F.);
#136=ORIENTED_EDGE('',*,*,#104,.F.);
#137=ORIENTED_EDGE('',*,*,#106,.F.);
#138=ORIENTED_EDGE('',*,*,#95,.F.);
#139=ORIENTED_EDGE('',*,*,#107,.T.);
#140=ORIENTED_EDGE('',*,*,#106,.T.);
#141=ORIENTED_EDGE('',*,*,#107,.F.);
#142=ORIENTED_EDGE('',*,*,#108,.F.);
#143=ORIENTED_EDGE('',*,*,#109,.T.);
#144=ORIENTED_EDGE('',*,*,#96,.T.);
#145=ORIENTED_EDGE('',*,*,#109,.F.);
#146=ORIENTED_EDGE('',*,*,#110,.F.);
#147=ORIENTED_EDGE('',*,*,#111,.T.);
#148=ORIENTED_EDGE('',*,*,#108,.T.);
#149=ORIENTED_EDGE('',*,*,#111,.F.);
#150=ORIENTED_EDGE('',*,*,#110,.T.);
#151=ORIENTED_EDGE('',*,*,#112,.F.);
#152=ORIENTED_EDGE('',*,*,#112,.T.);
#153=ORIENTED_EDGE('',*,*,#113,.T.);
#154=ORIENTED_EDGE('',*,*,#103,.F.);
#155=ORIENTED_EDGE('',*,*,#113,.F.);
#156=TOROIDAL_SURFACE('',#185,17.5000751838144,2.5);
#157=TOROIDAL_SURFACE('',#191,19.5000002381283,0.5);
#158=TOROIDAL_SURFACE('',#199,19.5000002381283,0.5);
#159=ADVANCED_FACE('',(#39),#156,.T.);
#160=ADVANCED_FACE('',(#40),#37,.T.);
#161=ADVANCED_FACE('',(#41),#157,.T.);
#162=ADVANCED_FACE('',(#42),#21,.T.);
#163=ADVANCED_FACE('',(#43,#15),#18,.T.);
#164=ADVANCED_FACE('',(#44),#158,.T.);
#165=ADVANCED_FACE('',(#45,#16),#19,.T.);
#166=ADVANCED_FACE('',(#46),#22,.T.);
#167=ADVANCED_FACE('',(#47),#38,.T.);
#168=ADVANCED_FACE('',(#48),#23,.T.);
#169=ADVANCED_FACE('',(#49,#17),#20,.T.);
#170=ADVANCED_FACE('',(#50),#24,.F.);
#171=CLOSED_SHELL('',(#159,#160,#161,#162,#163,#164,#165,#166,#167,#168,
#169,#170));
#172=DERIVED_UNIT_ELEMENT(#174,1.);
#173=DERIVED_UNIT_ELEMENT(#325,-3.);
#174=(
MASS_UNIT()
NAMED_UNIT(*)
SI_UNIT(.KILO.,.GRAM.)
);
#175=DERIVED_UNIT((#172,#173));
#176=MEASURE_REPRESENTATION_ITEM('density measure',
POSITIVE_RATIO_MEASURE(7850.),#175);
#177=PROPERTY_DEFINITION_REPRESENTATION(#182,#179);
#178=PROPERTY_DEFINITION_REPRESENTATION(#183,#180);
#179=REPRESENTATION('material name',(#181),#322);
#180=REPRESENTATION('density',(#176),#322);
#181=DESCRIPTIVE_REPRESENTATION_ITEM('Acier','Acier');
#182=PROPERTY_DEFINITION('material property','material name',#332);
#183=PROPERTY_DEFINITION('material property','density of part',#332);
#184=AXIS2_PLACEMENT_3D('',#274,#212,#213);
#185=AXIS2_PLACEMENT_3D('',#275,#214,#215);
#186=AXIS2_PLACEMENT_3D('',#277,#216,#217);
#187=AXIS2_PLACEMENT_3D('',#279,#218,#219);
#188=AXIS2_PLACEMENT_3D('',#280,#220,#221);
#189=AXIS2_PLACEMENT_3D('',#281,#222,#223);
#190=AXIS2_PLACEMENT_3D('',#283,#224,#225);
#191=AXIS2_PLACEMENT_3D('',#285,#227,#228);
#192=AXIS2_PLACEMENT_3D('',#287,#229,#230);
#193=AXIS2_PLACEMENT_3D('',#289,#231,#232);
#194=AXIS2_PLACEMENT_3D('',#290,#233,#234);
#195=AXIS2_PLACEMENT_3D('',#291,#235,#236);
#196=AXIS2_PLACEMENT_3D('',#293,#237,#238);
#197=AXIS2_PLACEMENT_3D('',#295,#240,#241);
#198=AXIS2_PLACEMENT_3D('',#297,#242,#243);
#199=AXIS2_PLACEMENT_3D('',#298,#244,#245);
#200=AXIS2_PLACEMENT_3D('',#300,#246,#247);
#201=AXIS2_PLACEMENT_3D('',#301,#248,#249);
#202=AXIS2_PLACEMENT_3D('',#302,#250,#251);
#203=AXIS2_PLACEMENT_3D('',#304,#252,#253);
#204=AXIS2_PLACEMENT_3D('',#305,#254,#255);
#205=AXIS2_PLACEMENT_3D('',#307,#257,#258);
#206=AXIS2_PLACEMENT_3D('',#309,#259,#260);
#207=AXIS2_PLACEMENT_3D('',#311,#262,#263);
#208=AXIS2_PLACEMENT_3D('',#313,#264,#265);
#209=AXIS2_PLACEMENT_3D('',#315,#267,#268);
#210=AXIS2_PLACEMENT_3D('',#317,#269,#270);
#211=AXIS2_PLACEMENT_3D('',#318,#271,#272);
#212=DIRECTION('axis',(0.,0.,1.));
#213=DIRECTION('refdir',(1.,0.,0.));
#214=DIRECTION('center_axis',(0.,0.,-1.));
#215=DIRECTION('ref_axis',(-1.,1.22464679914735E-16,0.));
#216=DIRECTION('center_axis',(0.,0.,1.));
#217=DIRECTION('ref_axis',(-1.,1.22464679914735E-16,0.));
#218=DIRECTION('center_axis',(0.,-1.,0.));
#219=DIRECTION('ref_axis',(1.,0.,0.));
#220=DIRECTION('center_axis',(0.,0.,-1.));
#221=DIRECTION('ref_axis',(1.,0.,0.));
#222=DIRECTION('center_axis',(0.,0.,1.));
#223=DIRECTION('ref_axis',(-1.,0.,0.));
#224=DIRECTION('center_axis',(0.,0.,-1.));
#225=DIRECTION('ref_axis',(1.,0.,0.));
#226=DIRECTION('',(7.06077291963602E-6,-8.64695295553856E-22,0.999999999975073));
#227=DIRECTION('center_axis',(0.,0.,-1.));
#228=DIRECTION('ref_axis',(-1.,0.,0.));
#229=DIRECTION('center_axis',(0.,0.,1.));
#230=DIRECTION('ref_axis',(1.,0.,0.));
#231=DIRECTION('center_axis',(-1.22464679914735E-16,-1.,0.));
#232=DIRECTION('ref_axis',(1.,-1.22464679914735E-16,0.));
#233=DIRECTION('center_axis',(0.,0.,-1.));
#234=DIRECTION('ref_axis',(1.,0.,0.));
#235=DIRECTION('center_axis',(0.,0.,-1.));
#236=DIRECTION('ref_axis',(-1.,0.,0.));
#237=DIRECTION('center_axis',(0.,0.,-1.));
#238=DIRECTION('ref_axis',(1.,0.,0.));
#239=DIRECTION('',(0.,0.,1.));
#240=DIRECTION('center_axis',(0.,0.,1.));
#241=DIRECTION('ref_axis',(1.,0.,0.));
#242=DIRECTION('center_axis',(0.,0.,-1.));
#243=DIRECTION('ref_axis',(1.,0.,0.));
#244=DIRECTION('center_axis',(0.,0.,-1.));
#245=DIRECTION('ref_axis',(-1.,0.,0.));
#246=DIRECTION('center_axis',(0.,0.,1.));
#247=DIRECTION('ref_axis',(1.,0.,0.));
#248=DIRECTION('center_axis',(-1.22464679914735E-16,-1.,0.));
#249=DIRECTION('ref_axis',(1.,-1.22464679914735E-16,0.));
#250=DIRECTION('center_axis',(0.,0.,-1.));
#251=DIRECTION('ref_axis',(-1.,0.,0.));
#252=DIRECTION('center_axis',(0.,0.,-1.));
#253=DIRECTION('ref_axis',(1.,0.,0.));
#254=DIRECTION('center_axis',(0.,0.,-1.));
#255=DIRECTION('ref_axis',(-1.,0.,0.));
#256=DIRECTION('',(0.,0.,1.));
#257=DIRECTION('center_axis',(0.,0.,-1.));
#258=DIRECTION('ref_axis',(-1.,0.,0.));
#259=DIRECTION('center_axis',(0.,0.,-1.));
#260=DIRECTION('ref_axis',(1.,0.,0.));
#261=DIRECTION('',(-0.99999999922526,1.22464679819857E-16,3.93634402434111E-5));
#262=DIRECTION('center_axis',(0.,0.,-1.));
#263=DIRECTION('ref_axis',(-1.,0.,0.));
#264=DIRECTION('center_axis',(0.,0.,-1.));
#265=DIRECTION('ref_axis',(1.,0.,0.));
#266=DIRECTION('',(0.,0.,1.));
#267=DIRECTION('center_axis',(0.,0.,-1.));
#268=DIRECTION('ref_axis',(-1.,0.,0.));
#269=DIRECTION('center_axis',(0.,0.,-1.));
#270=DIRECTION('ref_axis',(1.,0.,0.));
#271=DIRECTION('center_axis',(0.,0.,-1.));
#272=DIRECTION('ref_axis',(-1.,0.,0.));
#273=DIRECTION('',(0.,0.,1.));
#274=CARTESIAN_POINT('',(0.,0.,0.));
#275=CARTESIAN_POINT('Origin',(0.,0.,17.0006619989516));
#276=CARTESIAN_POINT('',(20.0000751837521,0.,17.0006443470193));
#277=CARTESIAN_POINT('Origin',(0.,0.,17.0006443470193));
#278=CARTESIAN_POINT('',(19.0000002232283,0.,19.0007182171964));
#279=CARTESIAN_POINT('Origin',(17.5000751838144,0.,17.0006619989516));
#280=CARTESIAN_POINT('Origin',(0.,0.,19.0007182171964));
#281=CARTESIAN_POINT('Origin',(0.,0.,12.0015645313495));
#282=CARTESIAN_POINT('',(19.9999904669499,-2.44929243083278E-15,5.00241084550264));
#283=CARTESIAN_POINT('Origin',(0.,0.,5.00241084550264));
#284=CARTESIAN_POINT('',(20.0000398863847,-2.44929848296804E-15,12.0015645313495));
#285=CARTESIAN_POINT('Origin',(0.,0.,22.5007182171963));
#286=CARTESIAN_POINT('',(20.0000002381283,-2.44929362745701E-15,22.5007182171963));
#287=CARTESIAN_POINT('Origin',(0.,0.,22.5007182171963));
#288=CARTESIAN_POINT('',(19.5000002381283,-2.38806128749964E-15,23.0007182171963));
#289=CARTESIAN_POINT('Origin',(19.5000002381283,-2.38806128749964E-15,22.5007182171963));
#290=CARTESIAN_POINT('Origin',(0.,0.,23.0007182171963));
#291=CARTESIAN_POINT('Origin',(0.,0.,21.5007182171963));
#292=CARTESIAN_POINT('',(20.0000002381283,-2.44929362745701E-15,20.5007182171964));
#293=CARTESIAN_POINT('Origin',(0.,0.,20.5007182171964));
#294=CARTESIAN_POINT('',(20.0000002381283,-2.44929362745701E-15,21.5007182171963));
#295=CARTESIAN_POINT('Origin',(-20.0000002381283,0.,23.0007182171963));
#296=CARTESIAN_POINT('',(16.9999999848283,-2.0818995566925E-15,23.0007182171963));
#297=CARTESIAN_POINT('Origin',(0.,0.,23.0007182171963));
#298=CARTESIAN_POINT('Origin',(0.,0.,20.5007182171964));
#299=CARTESIAN_POINT('',(19.5000002381283,-2.38806128749964E-15,20.0007182171964));
#300=CARTESIAN_POINT('Origin',(0.,0.,20.0007182171964));
#301=CARTESIAN_POINT('Origin',(19.5000002381283,-2.38806128749964E-15,20.5007182171964));
#302=CARTESIAN_POINT('Origin',(-19.0000002232282,0.,20.0007182171964));
#303=CARTESIAN_POINT('',(19.0000002232282,-2.32682894571755E-15,20.0007182171964));
#304=CARTESIAN_POINT('Origin',(0.,0.,20.0007182171964));
#305=CARTESIAN_POINT('Origin',(0.,0.,19.5007182171964));
#306=CARTESIAN_POINT('',(19.0000002232282,-2.32682894571755E-15,19.5007182171964));
#307=CARTESIAN_POINT('Origin',(0.,0.,5.00156453134942));
#308=CARTESIAN_POINT('',(62.9999999848284,-7.71527483277033E-15,5.00071821719621));
#309=CARTESIAN_POINT('Origin',(0.,0.,5.00071821719621));
#310=CARTESIAN_POINT('',(41.4999952258891,-5.08228363180156E-15,5.00156453134942));
#311=CARTESIAN_POINT('Origin',(0.,0.,2.50071821719621));
#312=CARTESIAN_POINT('',(62.9999999848283,-7.71527483277033E-15,0.000718217196207516));
#313=CARTESIAN_POINT('Origin',(0.,0.,0.000718217196207238));
#314=CARTESIAN_POINT('',(62.9999999848283,-7.71527483277033E-15,2.50071821719621));
#315=CARTESIAN_POINT('Origin',(-16.9999999848283,0.,0.000718217196254358));
#316=CARTESIAN_POINT('',(16.9999999848283,-2.0818995566925E-15,0.000718217196253867));
#317=CARTESIAN_POINT('Origin',(0.,0.,0.000718217196253867));
#318=CARTESIAN_POINT('Origin',(0.,0.,11.5007182171963));
#319=CARTESIAN_POINT('',(16.9999999848283,-2.0818995566925E-15,11.5007182171963));
#320=UNCERTAINTY_MEASURE_WITH_UNIT(LENGTH_MEASURE(0.01),#324,
'DISTANCE_ACCURACY_VALUE',
'Maximum model space distance between geometric entities at asserted c
onnectivities');
#321=UNCERTAINTY_MEASURE_WITH_UNIT(LENGTH_MEASURE(0.01),#324,
'DISTANCE_ACCURACY_VALUE',
'Maximum model space distance between geometric entities at asserted c
onnectivities');
#322=(
GEOMETRIC_REPRESENTATION_CONTEXT(3)
GLOBAL_UNCERTAINTY_ASSIGNED_CONTEXT((#320))
GLOBAL_UNIT_ASSIGNED_CONTEXT((#324,#326,#327))
REPRESENTATION_CONTEXT('','3D')
);
#323=(
GEOMETRIC_REPRESENTATION_CONTEXT(3)
GLOBAL_UNCERTAINTY_ASSIGNED_CONTEXT((#321))
GLOBAL_UNIT_ASSIGNED_CONTEXT((#324,#326,#327))
REPRESENTATION_CONTEXT('','3D')
);
#324=(
LENGTH_UNIT()
NAMED_UNIT(*)
SI_UNIT(.MILLI.,.METRE.)
);
#325=(
LENGTH_UNIT()
NAMED_UNIT(*)
SI_UNIT($,.METRE.)
);
#326=(
NAMED_UNIT(*)
PLANE_ANGLE_UNIT()
SI_UNIT($,.RADIAN.)
);
#327=(
NAMED_UNIT(*)
SI_UNIT($,.STERADIAN.)
SOLID_ANGLE_UNIT()
);
#328=SHAPE_DEFINITION_REPRESENTATION(#329,#330);
#329=PRODUCT_DEFINITION_SHAPE('',$,#332);
#330=SHAPE_REPRESENTATION('',(#184),#322);
#331=PRODUCT_DEFINITION_CONTEXT('part definition',#336,'design');
#332=PRODUCT_DEFINITION('Base v3 alu','Base v3 alu v1',#333,#331);
#333=PRODUCT_DEFINITION_FORMATION('',$,#338);
#334=PRODUCT_RELATED_PRODUCT_CATEGORY('Base v3 alu v1','Base v3 alu v1',
(#338));
#335=APPLICATION_PROTOCOL_DEFINITION('international standard',
'automotive_design',2009,#336);
#336=APPLICATION_CONTEXT(
'Core Data for Automotive Mechanical Design Process');
#337=PRODUCT_CONTEXT('part definition',#336,'mechanical');
#338=PRODUCT('Base v3 alu','Base v3 alu v1',$,(#337));
#339=PRESENTATION_STYLE_ASSIGNMENT((#340));
#340=SURFACE_STYLE_USAGE(.BOTH.,#341);
#341=SURFACE_SIDE_STYLE('',(#342));
#342=SURFACE_STYLE_FILL_AREA(#343);
#343=FILL_AREA_STYLE('Acier - Satin\X\E9',(#344));
#344=FILL_AREA_STYLE_COLOUR('Acier - Satin\X\E9',#345);
#345=COLOUR_RGB('Acier - Satin\X\E9',0.627450980392157,0.627450980392157,
0.627450980392157);
ENDSEC;
END-ISO-10303-21;
