ISO-10303-21;
HEADER;
FILE_DESCRIPTION(('CATIA V5 STEP Exchange','CAx-IF Rec.Pracs.--- Model Styling and Organization---1.5--- 2016-08-15','CAx-IF Rec.Pracs.---Supplemental Geometry---1.0---2011-11-01','CAx-IF Rec.Pracs.--- Composite Materials ---3.4---2017-06-13','CAx-IF Rec.Pracs.---Tessellated 3D Geometry---1.0---2015-12-17'),'2;1');

FILE_NAME('C:\\Users\\sd05360\\Desktop\\Gear docs\\Divers\\Perso\\PART4.stp','2023-06-19T07:59:53+00:00',('none'),('none'),'CATIA Version 5-6 Release 2021 SP5 HF6','CATIA V5 STEP AP242 v2','none');

FILE_SCHEMA(('AP242_MANAGED_MODEL_BASED_3D_ENGINEERING_MIM_LF  {1 0 10303 442 1 1 4}'));

ENDSEC;
DATA;
#5=PRODUCT('PART4','','',(#2)) ;
#2=PRODUCT_CONTEXT(' ',#1,'mechanical') ;
#1=APPLICATION_CONTEXT('managed model based 3d engineering') ;
#10=PRODUCT_DEFINITION('',' ',#6,#3) ;
#3=PRODUCT_DEFINITION_CONTEXT('part definition',#1,' ') ;
#11=PRODUCT_DEFINITION_SHAPE(' ',' ',#10) ;
#487=MECHANICAL_DESIGN_GEOMETRIC_PRESENTATION_REPRESENTATION(' ',(#29),#16) ;
#488=MECHANICAL_DESIGN_GEOMETRIC_PRESENTATION_REPRESENTATION(' ',(#484),#16) ;
#7=PRODUCT_CATEGORY('part','specification') ;
#19=SHAPE_REPRESENTATION(' ',(#18),#16) ;
#17=CARTESIAN_POINT(' ',(0.,0.,0.)) ;
#31=CARTESIAN_POINT('Axis2P3D Location',(0.,9.84999999963,0.)) ;
#36=CARTESIAN_POINT('Axis2P3D Location',(0.,0.,0.)) ;
#40=CARTESIAN_POINT('Vertex',(-5.51091059616E-16,0.,3.)) ;
#42=CARTESIAN_POINT('Vertex',(3.58302035846E-15,0.,-3.)) ;
#45=CARTESIAN_POINT('Line Origine',(-5.51091059616E-16,3.25,3.)) ;
#49=CARTESIAN_POINT('Vertex',(-5.51091059616E-16,6.5,3.)) ;
#52=CARTESIAN_POINT('Axis2P3D Location',(0.,6.5,0.)) ;
#56=CARTESIAN_POINT('Vertex',(3.58302035846E-15,6.5,-3.)) ;
#59=CARTESIAN_POINT('Line Origine',(3.58302035846E-15,3.25,-3.)) ;
#71=CARTESIAN_POINT('Axis2P3D Location',(0.,0.,0.)) ;
#76=CARTESIAN_POINT('Axis2P3D Location',(0.,6.5,0.)) ;
#88=CARTESIAN_POINT('Axis2P3D Location',(0.,5.,0.)) ;
#93=CARTESIAN_POINT('Axis2P3D Location',(0.,6.12095598889,0.)) ;
#97=CARTESIAN_POINT('Vertex',(-1.32261854308E-15,6.12095598889,7.2)) ;
#99=CARTESIAN_POINT('Vertex',(-4.19052038338E-15,6.12095598889,-7.2)) ;
#102=CARTESIAN_POINT('Line Origine',(-1.12055182122E-15,5.56047799444,6.1)) ;
#106=CARTESIAN_POINT('Vertex',(-9.18485099361E-16,5.,5.)) ;
#109=CARTESIAN_POINT('Axis2P3D Location',(0.,5.,0.)) ;
#113=CARTESIAN_POINT('Vertex',(1.53080849893E-15,5.,-5.)) ;
#116=CARTESIAN_POINT('Line Origine',(1.8675863687E-15,5.56047799444,-6.1)) ;
#128=CARTESIAN_POINT('Axis2P3D Location',(0.,6.12095598889,0.)) ;
#133=CARTESIAN_POINT('Axis2P3D Location',(0.,5.,0.)) ;
#145=CARTESIAN_POINT('Axis2P3D Location',(0.,9.84999999963,0.)) ;
#150=CARTESIAN_POINT('Line Origine',(-9.18485099361E-16,2.5,5.)) ;
#154=CARTESIAN_POINT('Vertex',(-9.18485099361E-16,0.,5.)) ;
#157=CARTESIAN_POINT('Axis2P3D Location',(0.,0.,0.)) ;
#161=CARTESIAN_POINT('Vertex',(5.97170059743E-15,0.,-5.)) ;
#164=CARTESIAN_POINT('Line Origine',(5.97170059743E-15,2.5,-5.)) ;
#176=CARTESIAN_POINT('Axis2P3D Location',(0.,0.,0.)) ;
#188=CARTESIAN_POINT('Axis2P3D Location',(0.,6.5,3.)) ;
#193=CARTESIAN_POINT('Axis2P3D Location',(-4.47673852915E-16,6.5,-8.881784197E-16)) ;
#197=CARTESIAN_POINT('Vertex',(-1.26204068139E-16,6.5,5.25)) ;
#199=CARTESIAN_POINT('Vertex',(-1.29492800026E-14,6.5,-5.25)) ;
#202=CARTESIAN_POINT('Axis2P3D Location',(-4.47673852915E-16,6.5,-8.881784197E-16)) ;
#216=CARTESIAN_POINT('Axis2P3D Location',(8.881784197E-16,7.,0.)) ;
#221=CARTESIAN_POINT('Axis2P3D Location',(-5.81479309147E-15,7.,5.25)) ;
#225=CARTESIAN_POINT('Vertex',(-6.16328377754E-15,7.,5.75)) ;
#228=CARTESIAN_POINT('Axis2P3D Location',(8.881784197E-16,7.,0.)) ;
#232=CARTESIAN_POINT('Vertex',(-3.3465961395E-15,7.,-5.75)) ;
#235=CARTESIAN_POINT('Axis2P3D Location',(3.05311331772E-16,7.,-5.25)) ;
#247=CARTESIAN_POINT('Axis2P3D Location',(-4.4408920985E-16,7.,0.)) ;
#252=CARTESIAN_POINT('Axis2P3D Location',(-4.4408920985E-16,7.,0.)) ;
#264=CARTESIAN_POINT('Axis2P3D Location',(0.,0.,3.)) ;
#278=CARTESIAN_POINT('Axis2P3D Location',(0.,9.84999999963,0.)) ;
#283=CARTESIAN_POINT('Line Origine',(-1.05625786426E-15,13.1,5.75)) ;
#287=CARTESIAN_POINT('Vertex',(-2.28927053364E-14,19.4,5.75)) ;
#290=CARTESIAN_POINT('Axis2P3D Location',(0.,19.4,0.)) ;
#294=CARTESIAN_POINT('Vertex',(-3.3465961395E-15,19.4,-5.75)) ;
#297=CARTESIAN_POINT('Line Origine',(-3.3465961395E-15,13.1,-5.75)) ;
#309=CARTESIAN_POINT('Axis2P3D Location',(0.,19.4,0.)) ;
#321=CARTESIAN_POINT('Axis2P3D Location',(-4.86009780598E-14,13.65,-5.24025267623E-14)) ;
#326=CARTESIAN_POINT('Line Origine',(-4.59834627889E-15,19.55,-5.9)) ;
#330=CARTESIAN_POINT('Vertex',(-1.60534269287E-14,19.7,-6.05)) ;
#333=CARTESIAN_POINT('Axis2P3D Location',(-3.68166691154E-17,19.7,1.33226762955E-15)) ;
#337=CARTESIAN_POINT('Vertex',(-1.41481123808E-15,19.7,6.05)) ;
#340=CARTESIAN_POINT('Line Origine',(8.05819620184E-15,19.55,5.9)) ;
#352=CARTESIAN_POINT('Axis2P3D Location',(5.24025267623E-14,13.65,8.51170985546E-15)) ;
#357=CARTESIAN_POINT('Axis2P3D Location',(-1.33226762955E-15,19.7,-4.4408920985E-16)) ;
#369=CARTESIAN_POINT('Axis2P3D Location',(0.,9.84999999963,0.)) ;
#374=CARTESIAN_POINT('Line Origine',(-1.32261854308E-15,12.9104779944,7.2)) ;
#378=CARTESIAN_POINT('Vertex',(-1.58758791775E-14,19.4,7.2)) ;
#381=CARTESIAN_POINT('Line Origine',(-4.19052038338E-15,12.9104779944,-7.2)) ;
#385=CARTESIAN_POINT('Vertex',(-4.19052038338E-15,19.4,-7.2)) ;
#388=CARTESIAN_POINT('Axis2P3D Location',(0.,19.4,0.)) ;
#400=CARTESIAN_POINT('Axis2P3D Location',(0.,19.4,0.)) ;
#412=CARTESIAN_POINT('Axis2P3D Location',(0.,19.7,5.75)) ;
#417=CARTESIAN_POINT('Axis2P3D Location',(5.04065833356E-17,19.7,8.881784197E-16)) ;
#421=CARTESIAN_POINT('Vertex',(-1.33160602368E-14,19.7,-6.9)) ;
#423=CARTESIAN_POINT('Vertex',(-1.21710285378E-15,19.7,6.9)) ;
#426=CARTESIAN_POINT('Axis2P3D Location',(5.04065833356E-17,19.7,8.881784197E-16)) ;
#440=CARTESIAN_POINT('Axis2P3D Location',(6.23565727246E-15,26.6,3.06421554797E-14)) ;
#445=CARTESIAN_POINT('Line Origine',(4.85490255732E-15,19.55,-7.05)) ;
#450=CARTESIAN_POINT('Line Origine',(-4.02688163968E-15,19.55,7.05)) ;
#462=CARTESIAN_POINT('Axis2P3D Location',(1.06581410364E-14,26.6,9.54791801178E-15)) ;
#476=CARTESIAN_POINT('Axis2P3D Location',(0.,0.,0.)) ;
#8=PRODUCT_RELATED_PRODUCT_CATEGORY('part',$,(#5)) ;
#15=UNCERTAINTY_MEASURE_WITH_UNIT(LENGTH_MEASURE(0.005),#12,'distance_accuracy_value','CONFUSED CURVE UNCERTAINTY') ;
#29=STYLED_ITEM(' ',(#28),#21) ;
#484=STYLED_ITEM(' ',(#483),#479) ;
#28=PRESENTATION_STYLE_ASSIGNMENT((#27)) ;
#483=PRESENTATION_STYLE_ASSIGNMENT((#482)) ;
#482=CURVE_STYLE(' ',#480,POSITIVE_LENGTH_MEASURE(0.129999995232),#481) ;
#27=SURFACE_STYLE_USAGE(.BOTH.,#26) ;
#26=SURFACE_SIDE_STYLE(' ',(#25)) ;
#25=SURFACE_STYLE_FILL_AREA(#24) ;
#24=FILL_AREA_STYLE(' ',(#23)) ;
#23=FILL_AREA_STYLE_COLOUR(' ',#22) ;
#47=VECTOR('Line Direction',#46,1.) ;
#61=VECTOR('Line Direction',#60,1.) ;
#104=VECTOR('Line Direction',#103,1.) ;
#118=VECTOR('Line Direction',#117,1.) ;
#152=VECTOR('Line Direction',#151,1.) ;
#166=VECTOR('Line Direction',#165,1.) ;
#285=VECTOR('Line Direction',#284,1.) ;
#299=VECTOR('Line Direction',#298,1.) ;
#328=VECTOR('Line Direction',#327,1.) ;
#342=VECTOR('Line Direction',#341,1.) ;
#376=VECTOR('Line Direction',#375,1.) ;
#383=VECTOR('Line Direction',#382,1.) ;
#447=VECTOR('Line Direction',#446,1.) ;
#452=VECTOR('Line Direction',#451,1.) ;
#32=DIRECTION('Axis2P3D Direction',(0.,1.,0.)) ;
#33=DIRECTION('Axis2P3D XDirection',(-1.83697019872E-16,0.,1.)) ;
#37=DIRECTION('Axis2P3D Direction',(0.,1.,0.)) ;
#46=DIRECTION('Vector Direction',(0.,1.,0.)) ;
#53=DIRECTION('Axis2P3D Direction',(0.,1.,0.)) ;
#60=DIRECTION('Vector Direction',(0.,1.,0.)) ;
#72=DIRECTION('Axis2P3D Direction',(0.,1.,0.)) ;
#77=DIRECTION('Axis2P3D Direction',(0.,1.,0.)) ;
#89=DIRECTION('Axis2P3D Direction',(0.,1.,0.)) ;
#90=DIRECTION('Axis2P3D XDirection',(-1.83697019872E-16,0.,1.)) ;
#94=DIRECTION('Axis2P3D Direction',(0.,1.,0.)) ;
#103=DIRECTION('Vector Direction',(-1.6367524318E-16,0.45399049974,0.891006524188)) ;
#110=DIRECTION('Axis2P3D Direction',(0.,1.,0.)) ;
#117=DIRECTION('Vector Direction',(2.72792071967E-16,0.45399049974,-0.891006524188)) ;
#129=DIRECTION('Axis2P3D Direction',(0.,1.,0.)) ;
#134=DIRECTION('Axis2P3D Direction',(0.,1.,0.)) ;
#146=DIRECTION('Axis2P3D Direction',(0.,1.,0.)) ;
#147=DIRECTION('Axis2P3D XDirection',(-1.83697019872E-16,0.,1.)) ;
#151=DIRECTION('Vector Direction',(0.,1.,0.)) ;
#158=DIRECTION('Axis2P3D Direction',(0.,1.,0.)) ;
#165=DIRECTION('Vector Direction',(0.,1.,0.)) ;
#177=DIRECTION('Axis2P3D Direction',(0.,1.,0.)) ;
#189=DIRECTION('Axis2P3D Direction',(0.,1.,0.)) ;
#190=DIRECTION('Axis2P3D XDirection',(1.,-0.,0.)) ;
#194=DIRECTION('Axis2P3D Direction',(0.,1.,0.)) ;
#203=DIRECTION('Axis2P3D Direction',(0.,1.,0.)) ;
#217=DIRECTION('Axis2P3D Direction',(0.,1.,-0.)) ;
#218=DIRECTION('Axis2P3D XDirection',(-5.07530525543E-16,0.,1.)) ;
#222=DIRECTION('Axis2P3D Direction',(-1.,0.,-1.27675647832E-15)) ;
#229=DIRECTION('Axis2P3D Direction',(0.,1.,-0.)) ;
#236=DIRECTION('Axis2P3D Direction',(1.,-0.,-1.11022302463E-16)) ;
#248=DIRECTION('Axis2P3D Direction',(-0.,1.,0.)) ;
#249=DIRECTION('Axis2P3D XDirection',(-2.79141789049E-15,0.,-1.)) ;
#253=DIRECTION('Axis2P3D Direction',(-0.,1.,0.)) ;
#265=DIRECTION('Axis2P3D Direction',(0.,1.,0.)) ;
#266=DIRECTION('Axis2P3D XDirection',(1.,-0.,0.)) ;
#279=DIRECTION('Axis2P3D Direction',(0.,1.,0.)) ;
#280=DIRECTION('Axis2P3D XDirection',(-1.83697019872E-16,0.,1.)) ;
#284=DIRECTION('Vector Direction',(0.,1.,0.)) ;
#291=DIRECTION('Axis2P3D Direction',(0.,1.,0.)) ;
#298=DIRECTION('Vector Direction',(0.,1.,0.)) ;
#310=DIRECTION('Axis2P3D Direction',(0.,1.,0.)) ;
#322=DIRECTION('Axis2P3D Direction',(8.02713411416E-15,1.,8.881784197E-15)) ;
#323=DIRECTION('Axis2P3D XDirection',(0.866025403784,-2.50246913033E-15,-0.5)) ;
#327=DIRECTION('Vector Direction',(5.67604096562E-15,0.707106781187,-0.707106781187)) ;
#334=DIRECTION('Axis2P3D Direction',(5.85270890131E-15,1.,1.0137189179E-14)) ;
#341=DIRECTION('Vector Direction',(8.81622588299E-15,0.707106781187,0.707106781187)) ;
#353=DIRECTION('Axis2P3D Direction',(-8.881784197E-15,1.,-1.48029736617E-15)) ;
#354=DIRECTION('Axis2P3D XDirection',(3.65125056734E-17,1.44879791756E-15,1.)) ;
#358=DIRECTION('Axis2P3D Direction',(-8.881784197E-15,1.,3.24296195883E-31)) ;
#370=DIRECTION('Axis2P3D Direction',(0.,1.,0.)) ;
#371=DIRECTION('Axis2P3D XDirection',(-1.83697019872E-16,0.,1.)) ;
#375=DIRECTION('Vector Direction',(0.,1.,0.)) ;
#382=DIRECTION('Vector Direction',(0.,1.,0.)) ;
#389=DIRECTION('Axis2P3D Direction',(0.,1.,0.)) ;
#401=DIRECTION('Axis2P3D Direction',(0.,1.,0.)) ;
#413=DIRECTION('Axis2P3D Direction',(0.,1.,0.)) ;
#414=DIRECTION('Axis2P3D XDirection',(1.,-0.,0.)) ;
#418=DIRECTION('Axis2P3D Direction',(0.,1.,0.)) ;
#427=DIRECTION('Axis2P3D Direction',(0.,1.,0.)) ;
#441=DIRECTION('Axis2P3D Direction',(-8.54650082837E-16,-1.,-4.4408920985E-15)) ;
#442=DIRECTION('Axis2P3D XDirection',(0.866025403784,1.44879791756E-15,-0.5)) ;
#446=DIRECTION('Vector Direction',(-1.6510571749E-15,-0.707106781187,-0.707106781187)) ;
#451=DIRECTION('Vector Direction',(4.42399436673E-16,-0.707106781187,0.707106781187)) ;
#463=DIRECTION('Axis2P3D Direction',(-1.48029736617E-15,-1.,-1.48029736617E-15)) ;
#464=DIRECTION('Axis2P3D XDirection',(-1.83697019872E-16,-1.44879791756E-15,1.)) ;
#477=DIRECTION('Axis2P3D Direction',(0.,0.,1.)) ;
#478=DIRECTION('Axis2P3D XDirection',(1.,0.,0.)) ;
#475=SHAPE_REPRESENTATION_RELATIONSHIP(' ',' ',#19,#474) ;
#18=AXIS2_PLACEMENT_3D(' ',#17,$,$) ;
#34=AXIS2_PLACEMENT_3D('Cylinder Axis2P3D',#31,#32,#33) ;
#38=AXIS2_PLACEMENT_3D('Circle Axis2P3D',#36,#37,$) ;
#54=AXIS2_PLACEMENT_3D('Circle Axis2P3D',#52,#53,$) ;
#73=AXIS2_PLACEMENT_3D('Circle Axis2P3D',#71,#72,$) ;
#78=AXIS2_PLACEMENT_3D('Circle Axis2P3D',#76,#77,$) ;
#91=AXIS2_PLACEMENT_3D('Cone Axis2P3D',#88,#89,#90) ;
#95=AXIS2_PLACEMENT_3D('Circle Axis2P3D',#93,#94,$) ;
#111=AXIS2_PLACEMENT_3D('Circle Axis2P3D',#109,#110,$) ;
#130=AXIS2_PLACEMENT_3D('Circle Axis2P3D',#128,#129,$) ;
#135=AXIS2_PLACEMENT_3D('Circle Axis2P3D',#133,#134,$) ;
#148=AXIS2_PLACEMENT_3D('Cylinder Axis2P3D',#145,#146,#147) ;
#159=AXIS2_PLACEMENT_3D('Circle Axis2P3D',#157,#158,$) ;
#178=AXIS2_PLACEMENT_3D('Circle Axis2P3D',#176,#177,$) ;
#191=AXIS2_PLACEMENT_3D('Plane Axis2P3D',#188,#189,#190) ;
#195=AXIS2_PLACEMENT_3D('Circle Axis2P3D',#193,#194,$) ;
#204=AXIS2_PLACEMENT_3D('Circle Axis2P3D',#202,#203,$) ;
#219=AXIS2_PLACEMENT_3D('Torus Axis2P3D',#216,#217,#218) ;
#223=AXIS2_PLACEMENT_3D('Circle Axis2P3D',#221,#222,$) ;
#230=AXIS2_PLACEMENT_3D('Circle Axis2P3D',#228,#229,$) ;
#237=AXIS2_PLACEMENT_3D('Circle Axis2P3D',#235,#236,$) ;
#250=AXIS2_PLACEMENT_3D('Torus Axis2P3D',#247,#248,#249) ;
#254=AXIS2_PLACEMENT_3D('Circle Axis2P3D',#252,#253,$) ;
#267=AXIS2_PLACEMENT_3D('Plane Axis2P3D',#264,#265,#266) ;
#281=AXIS2_PLACEMENT_3D('Cylinder Axis2P3D',#278,#279,#280) ;
#292=AXIS2_PLACEMENT_3D('Circle Axis2P3D',#290,#291,$) ;
#311=AXIS2_PLACEMENT_3D('Circle Axis2P3D',#309,#310,$) ;
#324=AXIS2_PLACEMENT_3D('Cone Axis2P3D',#321,#322,#323) ;
#335=AXIS2_PLACEMENT_3D('Circle Axis2P3D',#333,#334,$) ;
#355=AXIS2_PLACEMENT_3D('Cone Axis2P3D',#352,#353,#354) ;
#359=AXIS2_PLACEMENT_3D('Circle Axis2P3D',#357,#358,$) ;
#372=AXIS2_PLACEMENT_3D('Cylinder Axis2P3D',#369,#370,#371) ;
#390=AXIS2_PLACEMENT_3D('Circle Axis2P3D',#388,#389,$) ;
#402=AXIS2_PLACEMENT_3D('Circle Axis2P3D',#400,#401,$) ;
#415=AXIS2_PLACEMENT_3D('Plane Axis2P3D',#412,#413,#414) ;
#419=AXIS2_PLACEMENT_3D('Circle Axis2P3D',#417,#418,$) ;
#428=AXIS2_PLACEMENT_3D('Circle Axis2P3D',#426,#427,$) ;
#443=AXIS2_PLACEMENT_3D('Cone Axis2P3D',#440,#441,#442) ;
#465=AXIS2_PLACEMENT_3D('Cone Axis2P3D',#462,#463,#464) ;
#479=AXIS2_PLACEMENT_3D('Absolute Axis System',#476,#477,#478) ;
#48=LINE('Line',#45,#47) ;
#62=LINE('Line',#59,#61) ;
#105=LINE('Line',#102,#104) ;
#119=LINE('Line',#116,#118) ;
#153=LINE('Line',#150,#152) ;
#167=LINE('Line',#164,#166) ;
#286=LINE('Line',#283,#285) ;
#300=LINE('Line',#297,#299) ;
#329=LINE('Line',#326,#328) ;
#343=LINE('Line',#340,#342) ;
#377=LINE('Line',#374,#376) ;
#384=LINE('Line',#381,#383) ;
#448=LINE('Line',#445,#447) ;
#453=LINE('Line',#450,#452) ;
#39=CIRCLE('generated circle',#38,3.) ;
#55=CIRCLE('generated circle',#54,3.) ;
#74=CIRCLE('generated circle',#73,3.) ;
#79=CIRCLE('generated circle',#78,3.) ;
#96=CIRCLE('generated circle',#95,7.2) ;
#112=CIRCLE('generated circle',#111,5.) ;
#131=CIRCLE('generated circle',#130,7.2) ;
#136=CIRCLE('generated circle',#135,5.) ;
#160=CIRCLE('generated circle',#159,5.) ;
#179=CIRCLE('generated circle',#178,5.) ;
#196=CIRCLE('generated circle',#195,5.25) ;
#205=CIRCLE('generated circle',#204,5.25) ;
#224=CIRCLE('generated circle',#223,0.5) ;
#231=CIRCLE('generated circle',#230,5.75) ;
#238=CIRCLE('generated circle',#237,0.5) ;
#255=CIRCLE('generated circle',#254,5.75) ;
#293=CIRCLE('generated circle',#292,5.75) ;
#312=CIRCLE('generated circle',#311,5.75) ;
#336=CIRCLE('generated circle',#335,6.05) ;
#360=CIRCLE('generated circle',#359,6.05) ;
#391=CIRCLE('generated circle',#390,7.2) ;
#403=CIRCLE('generated circle',#402,7.2) ;
#420=CIRCLE('generated circle',#419,6.9) ;
#429=CIRCLE('generated circle',#428,6.9) ;
#192=PLANE('',#191) ;
#268=PLANE('',#267) ;
#416=PLANE('',#415) ;
#35=CYLINDRICAL_SURFACE('generated cylinder',#34,3.) ;
#149=CYLINDRICAL_SURFACE('generated cylinder',#148,5.) ;
#282=CYLINDRICAL_SURFACE('generated cylinder',#281,5.75) ;
#373=CYLINDRICAL_SURFACE('generated cylinder',#372,7.2) ;
#92=CONICAL_SURFACE('Cone',#91,5.,1.09955742876) ;
#325=CONICAL_SURFACE('Cone',#324,0.,0.785398163397) ;
#356=CONICAL_SURFACE('Cone',#355,0.,0.785398163397) ;
#444=CONICAL_SURFACE('Cone',#443,0.,0.785398163397) ;
#466=CONICAL_SURFACE('Cone',#465,0.,0.785398163397) ;
#220=TOROIDAL_SURFACE('homeo Torus',#219,5.25,0.5) ;
#251=TOROIDAL_SURFACE('homeo Torus',#250,5.25,0.5) ;
#214=FACE_BOUND('',#211,.T.) ;
#276=FACE_BOUND('',#273,.T.) ;
#438=FACE_BOUND('',#435,.T.) ;
#44=EDGE_CURVE('',#41,#43,#39,.T.) ;
#51=EDGE_CURVE('',#41,#50,#48,.T.) ;
#58=EDGE_CURVE('',#50,#57,#55,.T.) ;
#63=EDGE_CURVE('',#43,#57,#62,.T.) ;
#75=EDGE_CURVE('',#43,#41,#74,.T.) ;
#80=EDGE_CURVE('',#57,#50,#79,.T.) ;
#101=EDGE_CURVE('',#98,#100,#96,.T.) ;
#108=EDGE_CURVE('',#98,#107,#105,.F.) ;
#115=EDGE_CURVE('',#107,#114,#112,.T.) ;
#120=EDGE_CURVE('',#100,#114,#119,.F.) ;
#132=EDGE_CURVE('',#100,#98,#131,.T.) ;
#137=EDGE_CURVE('',#114,#107,#136,.T.) ;
#156=EDGE_CURVE('',#107,#155,#153,.F.) ;
#163=EDGE_CURVE('',#155,#162,#160,.T.) ;
#168=EDGE_CURVE('',#114,#162,#167,.F.) ;
#180=EDGE_CURVE('',#162,#155,#179,.T.) ;
#201=EDGE_CURVE('',#198,#200,#196,.F.) ;
#206=EDGE_CURVE('',#200,#198,#205,.F.) ;
#227=EDGE_CURVE('',#198,#226,#224,.T.) ;
#234=EDGE_CURVE('',#233,#226,#231,.F.) ;
#239=EDGE_CURVE('',#200,#233,#238,.T.) ;
#256=EDGE_CURVE('',#226,#233,#255,.F.) ;
#289=EDGE_CURVE('',#226,#288,#286,.T.) ;
#296=EDGE_CURVE('',#288,#295,#293,.T.) ;
#301=EDGE_CURVE('',#233,#295,#300,.T.) ;
#313=EDGE_CURVE('',#295,#288,#312,.T.) ;
#332=EDGE_CURVE('',#295,#331,#329,.T.) ;
#339=EDGE_CURVE('',#331,#338,#336,.T.) ;
#344=EDGE_CURVE('',#288,#338,#343,.T.) ;
#361=EDGE_CURVE('',#338,#331,#360,.T.) ;
#380=EDGE_CURVE('',#379,#98,#377,.F.) ;
#387=EDGE_CURVE('',#386,#100,#384,.F.) ;
#392=EDGE_CURVE('',#379,#386,#391,.T.) ;
#404=EDGE_CURVE('',#386,#379,#403,.T.) ;
#425=EDGE_CURVE('',#422,#424,#420,.T.) ;
#430=EDGE_CURVE('',#424,#422,#429,.T.) ;
#449=EDGE_CURVE('',#422,#386,#448,.T.) ;
#454=EDGE_CURVE('',#424,#379,#453,.T.) ;
#30=CLOSED_SHELL('Closed Shell',(#70,#87,#127,#144,#175,#187,#215,#246,#263,#277,#308,#320,#351,#368,#399,#411,#439,#461,#473)) ;
#65=ORIENTED_EDGE('',*,*,#44,.F.) ;
#66=ORIENTED_EDGE('',*,*,#51,.T.) ;
#67=ORIENTED_EDGE('',*,*,#58,.T.) ;
#68=ORIENTED_EDGE('',*,*,#63,.F.) ;
#82=ORIENTED_EDGE('',*,*,#75,.F.) ;
#83=ORIENTED_EDGE('',*,*,#63,.T.) ;
#84=ORIENTED_EDGE('',*,*,#80,.T.) ;
#85=ORIENTED_EDGE('',*,*,#51,.F.) ;
#122=ORIENTED_EDGE('',*,*,#101,.F.) ;
#123=ORIENTED_EDGE('',*,*,#108,.T.) ;
#124=ORIENTED_EDGE('',*,*,#115,.T.) ;
#125=ORIENTED_EDGE('',*,*,#120,.F.) ;
#139=ORIENTED_EDGE('',*,*,#132,.F.) ;
#140=ORIENTED_EDGE('',*,*,#120,.T.) ;
#141=ORIENTED_EDGE('',*,*,#137,.T.) ;
#142=ORIENTED_EDGE('',*,*,#108,.F.) ;
#170=ORIENTED_EDGE('',*,*,#115,.F.) ;
#171=ORIENTED_EDGE('',*,*,#156,.T.) ;
#172=ORIENTED_EDGE('',*,*,#163,.T.) ;
#173=ORIENTED_EDGE('',*,*,#168,.F.) ;
#182=ORIENTED_EDGE('',*,*,#137,.F.) ;
#183=ORIENTED_EDGE('',*,*,#168,.T.) ;
#184=ORIENTED_EDGE('',*,*,#180,.T.) ;
#185=ORIENTED_EDGE('',*,*,#156,.F.) ;
#208=ORIENTED_EDGE('',*,*,#201,.F.) ;
#209=ORIENTED_EDGE('',*,*,#206,.F.) ;
#212=ORIENTED_EDGE('',*,*,#58,.F.) ;
#213=ORIENTED_EDGE('',*,*,#80,.F.) ;
#241=ORIENTED_EDGE('',*,*,#206,.T.) ;
#242=ORIENTED_EDGE('',*,*,#227,.T.) ;
#243=ORIENTED_EDGE('',*,*,#234,.F.) ;
#244=ORIENTED_EDGE('',*,*,#239,.F.) ;
#258=ORIENTED_EDGE('',*,*,#201,.T.) ;
#259=ORIENTED_EDGE('',*,*,#239,.T.) ;
#260=ORIENTED_EDGE('',*,*,#256,.F.) ;
#261=ORIENTED_EDGE('',*,*,#227,.F.) ;
#270=ORIENTED_EDGE('',*,*,#163,.F.) ;
#271=ORIENTED_EDGE('',*,*,#180,.F.) ;
#274=ORIENTED_EDGE('',*,*,#75,.T.) ;
#275=ORIENTED_EDGE('',*,*,#44,.T.) ;
#303=ORIENTED_EDGE('',*,*,#234,.T.) ;
#304=ORIENTED_EDGE('',*,*,#289,.T.) ;
#305=ORIENTED_EDGE('',*,*,#296,.T.) ;
#306=ORIENTED_EDGE('',*,*,#301,.F.) ;
#315=ORIENTED_EDGE('',*,*,#256,.T.) ;
#316=ORIENTED_EDGE('',*,*,#301,.T.) ;
#317=ORIENTED_EDGE('',*,*,#313,.T.) ;
#318=ORIENTED_EDGE('',*,*,#289,.F.) ;
#346=ORIENTED_EDGE('',*,*,#332,.T.) ;
#347=ORIENTED_EDGE('',*,*,#339,.T.) ;
#348=ORIENTED_EDGE('',*,*,#344,.F.) ;
#349=ORIENTED_EDGE('',*,*,#313,.F.) ;
#363=ORIENTED_EDGE('',*,*,#344,.T.) ;
#364=ORIENTED_EDGE('',*,*,#361,.T.) ;
#365=ORIENTED_EDGE('',*,*,#332,.F.) ;
#366=ORIENTED_EDGE('',*,*,#296,.F.) ;
#394=ORIENTED_EDGE('',*,*,#380,.T.) ;
#395=ORIENTED_EDGE('',*,*,#101,.T.) ;
#396=ORIENTED_EDGE('',*,*,#387,.F.) ;
#397=ORIENTED_EDGE('',*,*,#392,.F.) ;
#406=ORIENTED_EDGE('',*,*,#387,.T.) ;
#407=ORIENTED_EDGE('',*,*,#132,.T.) ;
#408=ORIENTED_EDGE('',*,*,#380,.F.) ;
#409=ORIENTED_EDGE('',*,*,#404,.F.) ;
#432=ORIENTED_EDGE('',*,*,#425,.T.) ;
#433=ORIENTED_EDGE('',*,*,#430,.T.) ;
#436=ORIENTED_EDGE('',*,*,#361,.F.) ;
#437=ORIENTED_EDGE('',*,*,#339,.F.) ;
#456=ORIENTED_EDGE('',*,*,#449,.T.) ;
#457=ORIENTED_EDGE('',*,*,#404,.T.) ;
#458=ORIENTED_EDGE('',*,*,#454,.F.) ;
#459=ORIENTED_EDGE('',*,*,#425,.F.) ;
#468=ORIENTED_EDGE('',*,*,#454,.T.) ;
#469=ORIENTED_EDGE('',*,*,#392,.T.) ;
#470=ORIENTED_EDGE('',*,*,#449,.F.) ;
#471=ORIENTED_EDGE('',*,*,#430,.F.) ;
#485=CONSTRUCTIVE_GEOMETRY_REPRESENTATION('supplemental geometry',(#479),#16) ;
#64=EDGE_LOOP('',(#65,#66,#67,#68)) ;
#81=EDGE_LOOP('',(#82,#83,#84,#85)) ;
#121=EDGE_LOOP('',(#122,#123,#124,#125)) ;
#138=EDGE_LOOP('',(#139,#140,#141,#142)) ;
#169=EDGE_LOOP('',(#170,#171,#172,#173)) ;
#181=EDGE_LOOP('',(#182,#183,#184,#185)) ;
#207=EDGE_LOOP('',(#208,#209)) ;
#211=EDGE_LOOP('',(#212,#213)) ;
#240=EDGE_LOOP('',(#241,#242,#243,#244)) ;
#257=EDGE_LOOP('',(#258,#259,#260,#261)) ;
#269=EDGE_LOOP('',(#270,#271)) ;
#273=EDGE_LOOP('',(#274,#275)) ;
#302=EDGE_LOOP('',(#303,#304,#305,#306)) ;
#314=EDGE_LOOP('',(#315,#316,#317,#318)) ;
#345=EDGE_LOOP('',(#346,#347,#348,#349)) ;
#362=EDGE_LOOP('',(#363,#364,#365,#366)) ;
#393=EDGE_LOOP('',(#394,#395,#396,#397)) ;
#405=EDGE_LOOP('',(#406,#407,#408,#409)) ;
#431=EDGE_LOOP('',(#432,#433)) ;
#435=EDGE_LOOP('',(#436,#437)) ;
#455=EDGE_LOOP('',(#456,#457,#458,#459)) ;
#467=EDGE_LOOP('',(#468,#469,#470,#471)) ;
#21=MANIFOLD_SOLID_BREP('PartBody',#30) ;
#41=VERTEX_POINT('',#40) ;
#43=VERTEX_POINT('',#42) ;
#50=VERTEX_POINT('',#49) ;
#57=VERTEX_POINT('',#56) ;
#98=VERTEX_POINT('',#97) ;
#100=VERTEX_POINT('',#99) ;
#107=VERTEX_POINT('',#106) ;
#114=VERTEX_POINT('',#113) ;
#155=VERTEX_POINT('',#154) ;
#162=VERTEX_POINT('',#161) ;
#198=VERTEX_POINT('',#197) ;
#200=VERTEX_POINT('',#199) ;
#226=VERTEX_POINT('',#225) ;
#233=VERTEX_POINT('',#232) ;
#288=VERTEX_POINT('',#287) ;
#295=VERTEX_POINT('',#294) ;
#331=VERTEX_POINT('',#330) ;
#338=VERTEX_POINT('',#337) ;
#379=VERTEX_POINT('',#378) ;
#386=VERTEX_POINT('',#385) ;
#422=VERTEX_POINT('',#421) ;
#424=VERTEX_POINT('',#423) ;
#474=ADVANCED_BREP_SHAPE_REPRESENTATION('NONE',(#21),#16) ;
#70=ADVANCED_FACE('PartBody',(#69),#35,.F.) ;
#87=ADVANCED_FACE('PartBody',(#86),#35,.F.) ;
#127=ADVANCED_FACE('PartBody',(#126),#92,.T.) ;
#144=ADVANCED_FACE('PartBody',(#143),#92,.T.) ;
#175=ADVANCED_FACE('PartBody',(#174),#149,.T.) ;
#187=ADVANCED_FACE('PartBody',(#186),#149,.T.) ;
#215=ADVANCED_FACE('PartBody',(#210,#214),#192,.T.) ;
#246=ADVANCED_FACE('PartBody',(#245),#220,.F.) ;
#263=ADVANCED_FACE('PartBody',(#262),#251,.F.) ;
#277=ADVANCED_FACE('PartBody',(#272,#276),#268,.F.) ;
#308=ADVANCED_FACE('PartBody',(#307),#282,.F.) ;
#320=ADVANCED_FACE('PartBody',(#319),#282,.F.) ;
#351=ADVANCED_FACE('PartBody',(#350),#325,.F.) ;
#368=ADVANCED_FACE('PartBody',(#367),#356,.F.) ;
#399=ADVANCED_FACE('PartBody',(#398),#373,.T.) ;
#411=ADVANCED_FACE('PartBody',(#410),#373,.T.) ;
#439=ADVANCED_FACE('PartBody',(#434,#438),#416,.T.) ;
#461=ADVANCED_FACE('PartBody',(#460),#444,.T.) ;
#473=ADVANCED_FACE('PartBody',(#472),#466,.T.) ;
#4=APPLICATION_PROTOCOL_DEFINITION('international standard','ap242_managed_model_based_3d_engineering',2014,#1) ;
#22=COLOUR_RGB('Colour',0.823529411765,0.823529411765,1.) ;
#486=CONSTRUCTIVE_GEOMETRY_REPRESENTATION_RELATIONSHIP('supplemental geometry','',#19,#485) ;
#481=DRAUGHTING_PRE_DEFINED_COLOUR('white') ;
#480=DRAUGHTING_PRE_DEFINED_CURVE_FONT('continuous') ;
#69=FACE_OUTER_BOUND('',#64,.T.) ;
#86=FACE_OUTER_BOUND('',#81,.T.) ;
#126=FACE_OUTER_BOUND('',#121,.T.) ;
#143=FACE_OUTER_BOUND('',#138,.T.) ;
#174=FACE_OUTER_BOUND('',#169,.T.) ;
#186=FACE_OUTER_BOUND('',#181,.T.) ;
#210=FACE_OUTER_BOUND('',#207,.T.) ;
#245=FACE_OUTER_BOUND('',#240,.T.) ;
#262=FACE_OUTER_BOUND('',#257,.T.) ;
#272=FACE_OUTER_BOUND('',#269,.T.) ;
#307=FACE_OUTER_BOUND('',#302,.T.) ;
#319=FACE_OUTER_BOUND('',#314,.T.) ;
#350=FACE_OUTER_BOUND('',#345,.T.) ;
#367=FACE_OUTER_BOUND('',#362,.T.) ;
#398=FACE_OUTER_BOUND('',#393,.T.) ;
#410=FACE_OUTER_BOUND('',#405,.T.) ;
#434=FACE_OUTER_BOUND('',#431,.T.) ;
#460=FACE_OUTER_BOUND('',#455,.T.) ;
#472=FACE_OUTER_BOUND('',#467,.T.) ;
#9=PRODUCT_CATEGORY_RELATIONSHIP(' ',' ',#7,#8) ;
#6=PRODUCT_DEFINITION_FORMATION_WITH_SPECIFIED_SOURCE('',' ',#5,.NOT_KNOWN.) ;
#20=SHAPE_DEFINITION_REPRESENTATION(#11,#19) ;
#12=(LENGTH_UNIT()NAMED_UNIT(*)SI_UNIT(.MILLI.,.METRE.)) ;
#13=(NAMED_UNIT(*)PLANE_ANGLE_UNIT()SI_UNIT($,.RADIAN.)) ;
#14=(NAMED_UNIT(*)SI_UNIT($,.STERADIAN.)SOLID_ANGLE_UNIT()) ;
#16=(GEOMETRIC_REPRESENTATION_CONTEXT(3)GLOBAL_UNCERTAINTY_ASSIGNED_CONTEXT((#15))GLOBAL_UNIT_ASSIGNED_CONTEXT((#12,#13,#14))REPRESENTATION_CONTEXT(' ',' ')) ;
ENDSEC;
END-ISO-10303-21;
