ISO-10303-21;
HEADER;
FILE_DESCRIPTION( ( 'STEP AP203' ), '1' );
FILE_NAME( ' ', '  ', ( '  ' ), ( '  ' ), 'PSStep 10.1', '  ', '  ' );
FILE_SCHEMA( ( 'CONFIG_CONTROL_DESIGN' ) );
ENDSEC;
DATA;
#1 = DESIGN_CONTEXT( '', #27, 'design' );
#2 = APPLICATION_PROTOCOL_DEFINITION( 'INTERNATIONAL STANDARD', 'config_control_design', 1994, #27 );
#3 = PRODUCT_CATEGORY_RELATIONSHIP( 'NONE', 'NONE', #28, #29 );
#4 = DATE_AND_TIME( #30, #31 );
#5 = DATE_TIME_ROLE( 'creation_date' );
#6 = DATE_TIME_ROLE( 'classification_date' );
#7 = PERSON_AND_ORGANIZATION_ROLE( 'creator' );
#8 = PERSON_AND_ORGANIZATION_ROLE( 'design_supplier' );
#9 = PERSON_AND_ORGANIZATION_ROLE( 'classification_officer' );
#10 = PERSON_AND_ORGANIZATION_ROLE( 'design_owner' );
#11 = APPROVAL_PERSON_ORGANIZATION( #32, #33, #34 );
#12 = APPROVAL_DATE_TIME( #4, #33 );
#13 = CC_DESIGN_APPROVAL( #33, ( #35, #36, #37 ) );
#14 = CC_DESIGN_DATE_AND_TIME_ASSIGNMENT( #4, #5, ( #37 ) );
#15 = CC_DESIGN_DATE_AND_TIME_ASSIGNMENT( #4, #6, ( #35 ) );
#16 = CC_DESIGN_PERSON_AND_ORGANIZATION_ASSIGNMENT( #32, #10, ( #38 ) );
#17 = CC_DESIGN_PERSON_AND_ORGANIZATION_ASSIGNMENT( #32, #7, ( #37 ) );
#18 = CC_DESIGN_PERSON_AND_ORGANIZATION_ASSIGNMENT( #32, #7, ( #36 ) );
#19 = CC_DESIGN_PERSON_AND_ORGANIZATION_ASSIGNMENT( #32, #8, ( #36 ) );
#20 = CC_DESIGN_SECURITY_CLASSIFICATION( #35, ( #36 ) );
#21 = CC_DESIGN_PERSON_AND_ORGANIZATION_ASSIGNMENT( #32, #9, ( #35 ) );
#22 = SHAPE_DEFINITION_REPRESENTATION( #39, #40 );
#23 =  ( GEOMETRIC_REPRESENTATION_CONTEXT( 3 )GLOBAL_UNCERTAINTY_ASSIGNED_CONTEXT( ( #43 ) )GLOBAL_UNIT_ASSIGNED_CONTEXT( ( #45, #46, #47 ) )REPRESENTATION_CONTEXT( 'NONE', 'WORKSPACE' ) );
#27 = APPLICATION_CONTEXT( 'CONFIGURATION CONTROLLED 3D DESIGNS OF MECHANICAL PARTS AND ASSEMBLIES' );
#28 = PRODUCT_CATEGORY( 'part', 'NONE' );
#29 = PRODUCT_RELATED_PRODUCT_CATEGORY( 'detail', ' ', ( #38 ) );
#30 = CALENDAR_DATE( 2023, 12, 6 );
#31 = LOCAL_TIME( 8, 43, 4.00000000000000, #49 );
#32 = PERSON_AND_ORGANIZATION( #50, #51 );
#33 = APPROVAL( #52, 'SOLID MODEL' );
#34 = APPROVAL_ROLE( 'APPROVED' );
#35 = SECURITY_CLASSIFICATION( '', '', #53 );
#36 = PRODUCT_DEFINITION_FORMATION_WITH_SPECIFIED_SOURCE( ' ', 'NONE', #38, .NOT_KNOWN. );
#37 = PRODUCT_DEFINITION( 'NONE', 'NONE', #36, #1 );
#38 = PRODUCT( '1', '1', 'PART-1-DESC', ( #54 ) );
#39 = PRODUCT_DEFINITION_SHAPE( 'NONE', 'NONE', #37 );
#40 = ADVANCED_BREP_SHAPE_REPRESENTATION( '1', ( #55, #56 ), #23 );
#43 = UNCERTAINTY_MEASURE_WITH_UNIT( LENGTH_MEASURE( 0.00100000000000000 ), #45, '', '' );
#45 =  ( CONVERSION_BASED_UNIT( 'MILLIMETRE', #59 )LENGTH_UNIT(  )NAMED_UNIT( #62 ) );
#46 =  ( NAMED_UNIT( #64 )PLANE_ANGLE_UNIT(  )SI_UNIT( $, .RADIAN. ) );
#47 =  ( NAMED_UNIT( #64 )SI_UNIT( $, .STERADIAN. )SOLID_ANGLE_UNIT(  ) );
#49 = COORDINATED_UNIVERSAL_TIME_OFFSET( 1, 0, .AHEAD. );
#50 = PERSON( '', 'UNSPECIFIED', $, $, $, $ );
#51 = ORGANIZATION( 'UNSPECIFIED', 'UNSPECIFIED', 'UNSPECIFIED' );
#52 = APPROVAL_STATUS( 'approved' );
#53 = SECURITY_CLASSIFICATION_LEVEL( 'unclassified' );
#54 = MECHANICAL_CONTEXT( '', #27, 'mechanical' );
#55 = MANIFOLD_SOLID_BREP( '1', #70 );
#56 = AXIS2_PLACEMENT_3D( '', #71, #72, #73 );
#59 = LENGTH_MEASURE_WITH_UNIT( LENGTH_MEASURE( 1.00000000000000 ), #74 );
#62 = DIMENSIONAL_EXPONENTS( 1.00000000000000, 0.000000000000000, 0.000000000000000, 0.000000000000000, 0.000000000000000, 0.000000000000000, 0.000000000000000 );
#64 = DIMENSIONAL_EXPONENTS( 0.000000000000000, 0.000000000000000, 0.000000000000000, 0.000000000000000, 0.000000000000000, 0.000000000000000, 0.000000000000000 );
#70 = CLOSED_SHELL( '', ( #75, #76, #77, #78, #79, #80, #81, #82, #83, #84, #85, #86, #87, #88, #89, #90 ) );
#71 = CARTESIAN_POINT( '', ( 0.000000000000000, 0.000000000000000, 0.000000000000000 ) );
#72 = DIRECTION( '', ( 0.000000000000000, 0.000000000000000, 1.00000000000000 ) );
#73 = DIRECTION( '', ( 1.00000000000000, 0.000000000000000, 0.000000000000000 ) );
#74 =  ( LENGTH_UNIT(  )NAMED_UNIT( #62 )SI_UNIT( .MILLI., .METRE. ) );
#75 = ADVANCED_FACE( '', ( #92, #93 ), #94, .F. );
#76 = ADVANCED_FACE( '', ( #95 ), #96, .T. );
#77 = ADVANCED_FACE( '', ( #97 ), #98, .F. );
#78 = ADVANCED_FACE( '', ( #99 ), #100, .T. );
#79 = ADVANCED_FACE( '', ( #101, #102 ), #103, .F. );
#80 = ADVANCED_FACE( '', ( #104, #105, #106 ), #107, .F. );
#81 = ADVANCED_FACE( '', ( #108, #109 ), #110, .F. );
#82 = ADVANCED_FACE( '', ( #111 ), #112, .T. );
#83 = ADVANCED_FACE( '', ( #113 ), #114, .T. );
#84 = ADVANCED_FACE( '', ( #115 ), #116, .T. );
#85 = ADVANCED_FACE( '', ( #117, #118 ), #119, .F. );
#86 = ADVANCED_FACE( '', ( #120, #121 ), #122, .F. );
#87 = ADVANCED_FACE( '', ( #123, #124 ), #125, .F. );
#88 = ADVANCED_FACE( '', ( #126 ), #127, .F. );
#89 = ADVANCED_FACE( '', ( #128 ), #129, .F. );
#90 = ADVANCED_FACE( '', ( #130, #131 ), #132, .F. );
#92 = FACE_OUTER_BOUND( '', #133, .T. );
#93 = FACE_BOUND( '', #134, .T. );
#94 = CONICAL_SURFACE( '', #135, 1.73205080758249, 1.04719755120000 );
#95 = FACE_OUTER_BOUND( '', #136, .T. );
#96 = CYLINDRICAL_SURFACE( '', #137, 63.7999999948000 );
#97 = FACE_OUTER_BOUND( '', #138, .T. );
#98 = PLANE( '', #139 );
#99 = FACE_OUTER_BOUND( '', #140, .T. );
#100 = CYLINDRICAL_SURFACE( '', #141, 4.00000000000000 );
#101 = FACE_OUTER_BOUND( '', #142, .T. );
#102 = FACE_BOUND( '', #143, .T. );
#103 = PLANE( '', #144 );
#104 = FACE_OUTER_BOUND( '', #145, .T. );
#105 = FACE_BOUND( '', #146, .T. );
#106 = FACE_BOUND( '', #147, .T. );
#107 = PLANE( '', #148 );
#108 = FACE_OUTER_BOUND( '', #149, .T. );
#109 = FACE_BOUND( '', #150, .T. );
#110 = CONICAL_SURFACE( '', #151, 1.73205080758249, 1.04719755120000 );
#111 = FACE_OUTER_BOUND( '', #152, .T. );
#112 = PLANE( '', #153 );
#113 = FACE_OUTER_BOUND( '', #154, .T. );
#114 = TOROIDAL_SURFACE( '', #155, 59.7999999948000, 4.00000000000000 );
#115 = FACE_OUTER_BOUND( '', #156, .T. );
#116 = CYLINDRICAL_SURFACE( '', #157, 4.00000000000000 );
#117 = FACE_OUTER_BOUND( '', #158, .T. );
#118 = FACE_OUTER_BOUND( '', #159, .T. );
#119 = CYLINDRICAL_SURFACE( '', #160, 2.50000000000000 );
#120 = FACE_OUTER_BOUND( '', #161, .T. );
#121 = FACE_OUTER_BOUND( '', #162, .T. );
#122 = CYLINDRICAL_SURFACE( '', #163, 2.50000000000000 );
#123 = FACE_OUTER_BOUND( '', #164, .T. );
#124 = FACE_OUTER_BOUND( '', #165, .T. );
#125 = CYLINDRICAL_SURFACE( '', #166, 2.50000000000000 );
#126 = FACE_OUTER_BOUND( '', #167, .T. );
#127 = PLANE( '', #168 );
#128 = FACE_OUTER_BOUND( '', #169, .T. );
#129 = PLANE( '', #170 );
#130 = FACE_OUTER_BOUND( '', #171, .T. );
#131 = FACE_BOUND( '', #172, .T. );
#132 = CONICAL_SURFACE( '', #173, 1.73205080758249, 1.04719755120000 );
#133 = EDGE_LOOP( '', ( #174 ) );
#134 = VERTEX_LOOP( '', #175 );
#135 = AXIS2_PLACEMENT_3D( '', #176, #177, #178 );
#136 = EDGE_LOOP( '', ( #179, #180, #181, #182 ) );
#137 = AXIS2_PLACEMENT_3D( '', #183, #184, #185 );
#138 = EDGE_LOOP( '', ( #186, #187, #188, #189, #190 ) );
#139 = AXIS2_PLACEMENT_3D( '', #191, #192, #193 );
#140 = EDGE_LOOP( '', ( #194, #195, #196, #197 ) );
#141 = AXIS2_PLACEMENT_3D( '', #198, #199, #200 );
#142 = EDGE_LOOP( '', ( #201, #202, #203, #204 ) );
#143 = EDGE_LOOP( '', ( #205 ) );
#144 = AXIS2_PLACEMENT_3D( '', #206, #207, #208 );
#145 = EDGE_LOOP( '', ( #209, #210, #211, #212 ) );
#146 = EDGE_LOOP( '', ( #213 ) );
#147 = EDGE_LOOP( '', ( #214 ) );
#148 = AXIS2_PLACEMENT_3D( '', #215, #216, #217 );
#149 = EDGE_LOOP( '', ( #218 ) );
#150 = VERTEX_LOOP( '', #219 );
#151 = AXIS2_PLACEMENT_3D( '', #220, #221, #222 );
#152 = EDGE_LOOP( '', ( #223, #224, #225, #226, #227 ) );
#153 = AXIS2_PLACEMENT_3D( '', #228, #229, #230 );
#154 = EDGE_LOOP( '', ( #231, #232, #233, #234 ) );
#155 = AXIS2_PLACEMENT_3D( '', #235, #236, #237 );
#156 = EDGE_LOOP( '', ( #238, #239, #240, #241 ) );
#157 = AXIS2_PLACEMENT_3D( '', #242, #243, #244 );
#158 = EDGE_LOOP( '', ( #245 ) );
#159 = EDGE_LOOP( '', ( #246 ) );
#160 = AXIS2_PLACEMENT_3D( '', #247, #248, #249 );
#161 = EDGE_LOOP( '', ( #250 ) );
#162 = EDGE_LOOP( '', ( #251 ) );
#163 = AXIS2_PLACEMENT_3D( '', #252, #253, #254 );
#164 = EDGE_LOOP( '', ( #255 ) );
#165 = EDGE_LOOP( '', ( #256 ) );
#166 = AXIS2_PLACEMENT_3D( '', #257, #258, #259 );
#167 = EDGE_LOOP( '', ( #260, #261, #262, #263, #264 ) );
#168 = AXIS2_PLACEMENT_3D( '', #265, #266, #267 );
#169 = EDGE_LOOP( '', ( #268, #269, #270, #271, #272 ) );
#170 = AXIS2_PLACEMENT_3D( '', #273, #274, #275 );
#171 = EDGE_LOOP( '', ( #276 ) );
#172 = VERTEX_LOOP( '', #277 );
#173 = AXIS2_PLACEMENT_3D( '', #278, #279, #280 );
#174 = ORIENTED_EDGE( '', *, *, #281, .F. );
#175 = VERTEX_POINT( '', #282 );
#176 = CARTESIAN_POINT( '', ( 13010.6042027000, 1250.98800347625, -737.578135647880 ) );
#177 = DIRECTION( '', ( -0.000000000000000, 0.898794046254855, -0.438371146879929 ) );
#178 = DIRECTION( '', ( 1.00000000000000, 0.000000000000000, 0.000000000000000 ) );
#179 = ORIENTED_EDGE( '', *, *, #283, .T. );
#180 = ORIENTED_EDGE( '', *, *, #284, .T. );
#181 = ORIENTED_EDGE( '', *, *, #285, .F. );
#182 = ORIENTED_EDGE( '', *, *, #286, .F. );
#183 = CARTESIAN_POINT( '', ( 13013.1250000000, 1210.15506869000, -733.800000006000 ) );
#184 = DIRECTION( '', ( -1.00000000000000, 0.000000000000000, -0.000000000000000 ) );
#185 = DIRECTION( '', ( -0.000000000000000, -1.83697019872000E-016, -1.00000000000000 ) );
#186 = ORIENTED_EDGE( '', *, *, #287, .F. );
#187 = ORIENTED_EDGE( '', *, *, #288, .T. );
#188 = ORIENTED_EDGE( '', *, *, #289, .T. );
#189 = ORIENTED_EDGE( '', *, *, #290, .F. );
#190 = ORIENTED_EDGE( '', *, *, #291, .F. );
#191 = CARTESIAN_POINT( '', ( 13035.6250000000, 1286.60167750000, -722.600000001000 ) );
#192 = DIRECTION( '', ( -0.000000000000000, -0.000000000000000, -1.00000000000000 ) );
#193 = DIRECTION( '', ( 0.000000000000000, -1.00000000000000, 0.000000000000000 ) );
#194 = ORIENTED_EDGE( '', *, *, #292, .F. );
#195 = ORIENTED_EDGE( '', *, *, #293, .T. );
#196 = ORIENTED_EDGE( '', *, *, #294, .T. );
#197 = ORIENTED_EDGE( '', *, *, #287, .T. );
#198 = CARTESIAN_POINT( '', ( 13031.6250000000, 1263.86129766000, -760.100000001000 ) );
#199 = DIRECTION( '', ( -4.81574930734140E-029, -0.438371146879930, -0.898794046254856 ) );
#200 = DIRECTION( '', ( 1.00000000000000, -1.65105787776000E-016, 8.05274732798000E-017 ) );
#201 = ORIENTED_EDGE( '', *, *, #294, .F. );
#202 = ORIENTED_EDGE( '', *, *, #285, .T. );
#203 = ORIENTED_EDGE( '', *, *, #295, .T. );
#204 = ORIENTED_EDGE( '', *, *, #288, .F. );
#205 = ORIENTED_EDGE( '', *, *, #296, .T. );
#206 = CARTESIAN_POINT( '', ( 13035.6250000000, 1267.49812884000, -761.768079177000 ) );
#207 = DIRECTION( '', ( 0.000000000000000, -0.898794046254856, 0.438371146879929 ) );
#208 = DIRECTION( '', ( -1.00000000000000, 0.000000000000000, 0.000000000000000 ) );
#209 = ORIENTED_EDGE( '', *, *, #297, .F. );
#210 = ORIENTED_EDGE( '', *, *, #298, .T. );
#211 = ORIENTED_EDGE( '', *, *, #299, .T. );
#212 = ORIENTED_EDGE( '', *, *, #283, .F. );
#213 = ORIENTED_EDGE( '', *, *, #300, .T. );
#214 = ORIENTED_EDGE( '', *, *, #301, .T. );
#215 = CARTESIAN_POINT( '', ( 13035.6250000000, 1056.60167750000, -797.600000001000 ) );
#216 = DIRECTION( '', ( -0.000000000000000, 0.000000000000000, 1.00000000000000 ) );
#217 = DIRECTION( '', ( 1.00000000000000, -0.000000000000000, 0.000000000000000 ) );
#218 = ORIENTED_EDGE( '', *, *, #302, .F. );
#219 = VERTEX_POINT( '', #303 );
#220 = CARTESIAN_POINT( '', ( 13010.6042027000, 1091.50333628000, -772.156624328000 ) );
#221 = DIRECTION( '', ( 0.000000000000000, -0.000000000000000, -1.00000000000000 ) );
#222 = DIRECTION( '', ( 1.00000000000000, 0.000000000000000, 0.000000000000000 ) );
#223 = ORIENTED_EDGE( '', *, *, #291, .T. );
#224 = ORIENTED_EDGE( '', *, *, #304, .T. );
#225 = ORIENTED_EDGE( '', *, *, #305, .T. );
#226 = ORIENTED_EDGE( '', *, *, #306, .T. );
#227 = ORIENTED_EDGE( '', *, *, #292, .T. );
#228 = CARTESIAN_POINT( '', ( 13035.6250000000, 0.000000000000000, 0.000000000000000 ) );
#229 = DIRECTION( '', ( 1.00000000000000, 0.000000000000000, 0.000000000000000 ) );
#230 = DIRECTION( '', ( 0.000000000000000, 1.00000000000000, -0.000000000000000 ) );
#231 = ORIENTED_EDGE( '', *, *, #307, .T. );
#232 = ORIENTED_EDGE( '', *, *, #286, .T. );
#233 = ORIENTED_EDGE( '', *, *, #293, .F. );
#234 = ORIENTED_EDGE( '', *, *, #306, .F. );
#235 = CARTESIAN_POINT( '', ( 13031.6250000000, 1210.15506869000, -733.800000006000 ) );
#236 = DIRECTION( '', ( 1.00000000000000, 0.000000000000000, 0.000000000000000 ) );
#237 = DIRECTION( '', ( 0.000000000000000, 0.000000000000000, -1.00000000000000 ) );
#238 = ORIENTED_EDGE( '', *, *, #297, .T. );
#239 = ORIENTED_EDGE( '', *, *, #307, .F. );
#240 = ORIENTED_EDGE( '', *, *, #305, .F. );
#241 = ORIENTED_EDGE( '', *, *, #308, .T. );
#242 = CARTESIAN_POINT( '', ( 13031.6250000000, 1171.60167750000, -793.600000001000 ) );
#243 = DIRECTION( '', ( -0.000000000000000, -1.00000000000000, -0.000000000000000 ) );
#244 = DIRECTION( '', ( 1.00000000000000, -0.000000000000000, 1.83697019872000E-016 ) );
#245 = ORIENTED_EDGE( '', *, *, #300, .F. );
#246 = ORIENTED_EDGE( '', *, *, #309, .T. );
#247 = CARTESIAN_POINT( '', ( 13009.9167961000, 1187.65506869000, -797.600000001000 ) );
#248 = DIRECTION( '', ( -0.000000000000000, 0.000000000000000, -1.00000000000000 ) );
#249 = DIRECTION( '', ( 1.00000000000000, 0.000000000000000, 0.000000000000000 ) );
#250 = ORIENTED_EDGE( '', *, *, #301, .F. );
#251 = ORIENTED_EDGE( '', *, *, #302, .T. );
#252 = CARTESIAN_POINT( '', ( 13010.6042027000, 1091.50333628000, -797.600000001000 ) );
#253 = DIRECTION( '', ( -0.000000000000000, 0.000000000000000, -1.00000000000000 ) );
#254 = DIRECTION( '', ( 1.00000000000000, 0.000000000000000, 0.000000000000000 ) );
#255 = ORIENTED_EDGE( '', *, *, #296, .F. );
#256 = ORIENTED_EDGE( '', *, *, #281, .T. );
#257 = CARTESIAN_POINT( '', ( 13010.6042027000, 1273.85635805000, -748.731777422000 ) );
#258 = DIRECTION( '', ( -0.000000000000000, 0.898794046254855, -0.438371146879930 ) );
#259 = DIRECTION( '', ( 1.00000000000000, 0.000000000000000, 0.000000000000000 ) );
#260 = ORIENTED_EDGE( '', *, *, #310, .F. );
#261 = ORIENTED_EDGE( '', *, *, #289, .F. );
#262 = ORIENTED_EDGE( '', *, *, #295, .F. );
#263 = ORIENTED_EDGE( '', *, *, #284, .F. );
#264 = ORIENTED_EDGE( '', *, *, #299, .F. );
#265 = CARTESIAN_POINT( '', ( 12990.6250000000, 0.000000000000000, 0.000000000000000 ) );
#266 = DIRECTION( '', ( 1.00000000000000, 0.000000000000000, 0.000000000000000 ) );
#267 = DIRECTION( '', ( 0.000000000000000, 1.00000000000000, -0.000000000000000 ) );
#268 = ORIENTED_EDGE( '', *, *, #308, .F. );
#269 = ORIENTED_EDGE( '', *, *, #304, .F. );
#270 = ORIENTED_EDGE( '', *, *, #290, .T. );
#271 = ORIENTED_EDGE( '', *, *, #310, .T. );
#272 = ORIENTED_EDGE( '', *, *, #298, .F. );
#273 = CARTESIAN_POINT( '', ( 13035.6250000000, 1056.60167750000, -722.600000001000 ) );
#274 = DIRECTION( '', ( 0.000000000000000, 1.00000000000000, 0.000000000000000 ) );
#275 = DIRECTION( '', ( 1.00000000000000, 0.000000000000000, -0.000000000000000 ) );
#276 = ORIENTED_EDGE( '', *, *, #309, .F. );
#277 = VERTEX_POINT( '', #311 );
#278 = CARTESIAN_POINT( '', ( 13009.9167961000, 1187.65506869000, -772.156624328000 ) );
#279 = DIRECTION( '', ( 0.000000000000000, -0.000000000000000, -1.00000000000000 ) );
#280 = DIRECTION( '', ( 1.00000000000000, 0.000000000000000, 0.000000000000000 ) );
#281 = EDGE_CURVE( '', #312, #312, #313, .T. );
#282 = CARTESIAN_POINT( '', ( 13010.6042027000, 1250.08920943000, -737.139764501000 ) );
#283 = EDGE_CURVE( '', #314, #315, #316, .T. );
#284 = EDGE_CURVE( '', #315, #317, #318, .T. );
#285 = EDGE_CURVE( '', #319, #317, #320, .T. );
#286 = EDGE_CURVE( '', #314, #319, #321, .T. );
#287 = EDGE_CURVE( '', #322, #323, #324, .T. );
#288 = EDGE_CURVE( '', #322, #325, #326, .T. );
#289 = EDGE_CURVE( '', #325, #327, #328, .T. );
#290 = EDGE_CURVE( '', #329, #327, #330, .T. );
#291 = EDGE_CURVE( '', #323, #329, #331, .T. );
#292 = EDGE_CURVE( '', #332, #323, #333, .T. );
#293 = EDGE_CURVE( '', #332, #319, #334, .T. );
#294 = EDGE_CURVE( '', #319, #322, #335, .T. );
#295 = EDGE_CURVE( '', #317, #325, #336, .T. );
#296 = EDGE_CURVE( '', #337, #337, #338, .T. );
#297 = EDGE_CURVE( '', #339, #314, #340, .T. );
#298 = EDGE_CURVE( '', #339, #341, #342, .T. );
#299 = EDGE_CURVE( '', #341, #315, #343, .T. );
#300 = EDGE_CURVE( '', #344, #344, #345, .T. );
#301 = EDGE_CURVE( '', #346, #346, #347, .T. );
#302 = EDGE_CURVE( '', #348, #348, #349, .T. );
#303 = CARTESIAN_POINT( '', ( 13010.6042027000, 1091.50333628000, -771.156624328000 ) );
#304 = EDGE_CURVE( '', #329, #350, #351, .T. );
#305 = EDGE_CURVE( '', #350, #352, #353, .T. );
#306 = EDGE_CURVE( '', #352, #332, #354, .T. );
#307 = EDGE_CURVE( '', #352, #314, #355, .T. );
#308 = EDGE_CURVE( '', #350, #339, #356, .T. );
#309 = EDGE_CURVE( '', #357, #357, #358, .T. );
#310 = EDGE_CURVE( '', #327, #341, #359, .T. );
#311 = CARTESIAN_POINT( '', ( 13009.9167961000, 1187.65506869000, -771.156624328000 ) );
#312 = VERTEX_POINT( '', #360 );
#313 = CIRCLE( '', #361, 2.50000000000000 );
#314 = VERTEX_POINT( '', #362 );
#315 = VERTEX_POINT( '', #363 );
#316 = LINE( '', #364, #365 );
#317 = VERTEX_POINT( '', #366 );
#318 = CIRCLE( '', #367, 63.7999999948000 );
#319 = VERTEX_POINT( '', #368 );
#320 = LINE( '', #369, #370 );
#321 = CIRCLE( '', #371, 63.7999999948000 );
#322 = VERTEX_POINT( '', #372 );
#323 = VERTEX_POINT( '', #373 );
#324 = B_SPLINE_CURVE_WITH_KNOTS( '', 3, ( #374, #375, #376, #377, #378, #379, #380, #381, #382, #383, #384, #385, #386, #387, #388, #389, #390, #391, #392, #393 ), .UNSPECIFIED., .F., .F., ( 4, 1, 1, 1, 1, 1, 1, 1, 1, 1, 1, 1, 1, 1, 1, 1, 1, 4 ), ( 0.000000000000000, 0.0272626887914328, 0.0546283730510840, 0.0821104374915946, 0.109722097577308, 0.137476383648183, 0.165386126276486, 0.193463942919407, 0.221722225896024, 0.250173131706950, 0.370844319219888, 0.499944141746873, 0.624861727646093, 0.749818566948382, 0.808796314296180, 0.874920177085234, 0.927027197042728, 1.00000000000000 ), .UNSPECIFIED. );
#325 = VERTEX_POINT( '', #394 );
#326 = LINE( '', #395, #396 );
#327 = VERTEX_POINT( '', #397 );
#328 = LINE( '', #398, #399 );
#329 = VERTEX_POINT( '', #400 );
#330 = LINE( '', #401, #402 );
#331 = LINE( '', #403, #404 );
#332 = VERTEX_POINT( '', #405 );
#333 = LINE( '', #406, #407 );
#334 = CIRCLE( '', #408, 4.00000000000000 );
#335 = LINE( '', #409, #410 );
#336 = LINE( '', #411, #412 );
#337 = VERTEX_POINT( '', #413 );
#338 = CIRCLE( '', #414, 2.50000000000000 );
#339 = VERTEX_POINT( '', #415 );
#340 = LINE( '', #416, #417 );
#341 = VERTEX_POINT( '', #418 );
#342 = LINE( '', #419, #420 );
#343 = LINE( '', #421, #422 );
#344 = VERTEX_POINT( '', #423 );
#345 = CIRCLE( '', #424, 2.50000000000000 );
#346 = VERTEX_POINT( '', #425 );
#347 = CIRCLE( '', #426, 2.50000000000000 );
#348 = VERTEX_POINT( '', #427 );
#349 = CIRCLE( '', #428, 2.50000000000000 );
#350 = VERTEX_POINT( '', #429 );
#351 = LINE( '', #430, #431 );
#352 = VERTEX_POINT( '', #432 );
#353 = LINE( '', #433, #434 );
#354 = CIRCLE( '', #435, 59.7999999948000 );
#355 = CIRCLE( '', #436, 4.00000000000000 );
#356 = CIRCLE( '', #437, 4.00000000000000 );
#357 = VERTEX_POINT( '', #438 );
#358 = CIRCLE( '', #439, 2.50000000000000 );
#359 = LINE( '', #440, #441 );
#360 = CARTESIAN_POINT( '', ( 13013.1042027000, 1251.38650689000, -737.772498750000 ) );
#361 = AXIS2_PLACEMENT_3D( '', #442, #443, #444 );
#362 = CARTESIAN_POINT( '', ( 13031.6250000000, 1210.15506869000, -797.600000001000 ) );
#363 = CARTESIAN_POINT( '', ( 12990.6250000000, 1210.15506869000, -797.600000001000 ) );
#364 = CARTESIAN_POINT( '', ( 13013.1250000000, 1210.15506869000, -797.600000001000 ) );
#365 = VECTOR( '', #445, 1000.00000000000 );
#366 = CARTESIAN_POINT( '', ( 12990.6250000000, 1267.49812884000, -761.768079175000 ) );
#367 = AXIS2_PLACEMENT_3D( '', #446, #447, #448 );
#368 = CARTESIAN_POINT( '', ( 13031.6250000000, 1267.49812884000, -761.768079175000 ) );
#369 = CARTESIAN_POINT( '', ( 13013.1250000000, 1267.49812884000, -761.768079175000 ) );
#370 = VECTOR( '', #449, 1000.00000000000 );
#371 = AXIS2_PLACEMENT_3D( '', #450, #451, #452 );
#372 = CARTESIAN_POINT( '', ( 13031.6250000000, 1286.60167750000, -722.600000001000 ) );
#373 = CARTESIAN_POINT( '', ( 13035.6250000000, 1282.15126973000, -722.600000001000 ) );
#374 = CARTESIAN_POINT( '', ( 13031.6250000000, 1286.60167749841, -722.600000000225 ) );
#375 = CARTESIAN_POINT( '', ( 13031.6853084593, 1286.60079796850, -722.600005843855 ) );
#376 = CARTESIAN_POINT( '', ( 13031.8061532166, 1286.59903558591, -722.600017553191 ) );
#377 = CARTESIAN_POINT( '', ( 13031.9873294319, 1286.58477589615, -722.600071825493 ) );
#378 = CARTESIAN_POINT( '', ( 13032.1683478439, 1286.56195610427, -722.600120181097 ) );
#379 = CARTESIAN_POINT( '', ( 13032.3488239519, 1286.52970402028, -722.600150971495 ) );
#380 = CARTESIAN_POINT( '', ( 13032.5283679818, 1286.48822818182, -722.600154088448 ) );
#381 = CARTESIAN_POINT( '', ( 13032.7065870789, 1286.43746550018, -722.600129179127 ) );
#382 = CARTESIAN_POINT( '', ( 13032.8830808684, 1286.37745101151, -722.600083580651 ) );
#383 = CARTESIAN_POINT( '', ( 13033.0574622931, 1286.30820183098, -722.600033386339 ) );
#384 = CARTESIAN_POINT( '', ( 13033.4144916253, 1286.14531369910, -722.599968624487 ) );
#385 = CARTESIAN_POINT( '', ( 13033.9405292797, 1285.81656610790, -722.600333050753 ) );
#386 = CARTESIAN_POINT( '', ( 13034.5425966063, 1285.23861250007, -722.599888936558 ) );
#387 = CARTESIAN_POINT( '', ( 13035.0250519276, 1284.54721230978, -722.599950055299 ) );
#388 = CARTESIAN_POINT( '', ( 13035.3093970667, 1283.92177067992, -722.599905600083 ) );
#389 = CARTESIAN_POINT( '', ( 13035.4724629413, 1283.39272361885, -722.600050156890 ) );
#390 = CARTESIAN_POINT( '', ( 13035.5549135704, 1283.00903560080, -722.599934730054 ) );
#391 = CARTESIAN_POINT( '', ( 13035.6128851526, 1282.58954787580, -722.600166357775 ) );
#392 = CARTESIAN_POINT( '', ( 13035.6205362653, 1282.31275400839, -722.600061296888 ) );
#393 = CARTESIAN_POINT( '', ( 13035.6250000000, 1282.15126973478, -722.600000003329 ) );
#394 = CARTESIAN_POINT( '', ( 12990.6250000000, 1286.60167750000, -722.600000001000 ) );
#395 = CARTESIAN_POINT( '', ( 13011.1250000000, 1286.60167750000, -722.600000001000 ) );
#396 = VECTOR( '', #453, 1000.00000000000 );
#397 = CARTESIAN_POINT( '', ( 12990.6250000000, 1056.60167750000, -722.600000001000 ) );
#398 = CARTESIAN_POINT( '', ( 12990.6250000000, 1171.60167750000, -722.600000001000 ) );
#399 = VECTOR( '', #454, 1000.00000000000 );
#400 = CARTESIAN_POINT( '', ( 13035.6250000000, 1056.60167750000, -722.600000001000 ) );
#401 = CARTESIAN_POINT( '', ( 13013.1250000000, 1056.60167750000, -722.600000001000 ) );
#402 = VECTOR( '', #455, 1000.00000000000 );
#403 = CARTESIAN_POINT( '', ( 13035.6250000000, 1169.37647361000, -722.600000001000 ) );
#404 = VECTOR( '', #456, 1000.00000000000 );
#405 = CARTESIAN_POINT( '', ( 13035.6250000000, 1263.90295265000, -760.014594588000 ) );
#406 = CARTESIAN_POINT( '', ( 13035.6250000000, 1273.02711120000, -741.307297296000 ) );
#407 = VECTOR( '', #457, 1000.00000000000 );
#408 = AXIS2_PLACEMENT_3D( '', #458, #459, #460 );
#409 = CARTESIAN_POINT( '', ( 13031.6250000000, 1267.45647384000, -761.853484589000 ) );
#410 = VECTOR( '', #461, 1000.00000000000 );
#411 = CARTESIAN_POINT( '', ( 12990.6250000000, 1277.04990317000, -742.184039589000 ) );
#412 = VECTOR( '', #462, 1000.00000000000 );
#413 = CARTESIAN_POINT( '', ( 13013.1042027000, 1273.85635805000, -748.731777422000 ) );
#414 = AXIS2_PLACEMENT_3D( '', #463, #464, #465 );
#415 = CARTESIAN_POINT( '', ( 13031.6250000000, 1056.60167750000, -797.600000001000 ) );
#416 = CARTESIAN_POINT( '', ( 13031.6250000000, 1171.60167750000, -797.600000001000 ) );
#417 = VECTOR( '', #466, 1000.00000000000 );
#418 = CARTESIAN_POINT( '', ( 12990.6250000000, 1056.60167750000, -797.600000001000 ) );
#419 = CARTESIAN_POINT( '', ( 13011.1250000000, 1056.60167750000, -797.600000001000 ) );
#420 = VECTOR( '', #467, 1000.00000000000 );
#421 = CARTESIAN_POINT( '', ( 12990.6250000000, 1133.37837309000, -797.600000001000 ) );
#422 = VECTOR( '', #468, 1000.00000000000 );
#423 = CARTESIAN_POINT( '', ( 13012.4167961000, 1187.65506869000, -797.600000001000 ) );
#424 = AXIS2_PLACEMENT_3D( '', #469, #470, #471 );
#425 = CARTESIAN_POINT( '', ( 13013.1042027000, 1091.50333628000, -797.600000001000 ) );
#426 = AXIS2_PLACEMENT_3D( '', #472, #473, #474 );
#427 = CARTESIAN_POINT( '', ( 13013.1042027000, 1091.50333628000, -772.600000001000 ) );
#428 = AXIS2_PLACEMENT_3D( '', #475, #476, #477 );
#429 = CARTESIAN_POINT( '', ( 13035.6250000000, 1056.60167750000, -793.600000001000 ) );
#430 = CARTESIAN_POINT( '', ( 13035.6250000000, 1056.60167750000, -758.100000001000 ) );
#431 = VECTOR( '', #478, 1000.00000000000 );
#432 = CARTESIAN_POINT( '', ( 13035.6250000000, 1210.15506869000, -793.600000001000 ) );
#433 = CARTESIAN_POINT( '', ( 13035.6250000000, 1171.60167750000, -793.600000001000 ) );
#434 = VECTOR( '', #479, 1000.00000000000 );
#435 = AXIS2_PLACEMENT_3D( '', #480, #481, #482 );
#436 = AXIS2_PLACEMENT_3D( '', #483, #484, #485 );
#437 = AXIS2_PLACEMENT_3D( '', #486, #487, #488 );
#438 = CARTESIAN_POINT( '', ( 13012.4167961000, 1187.65506869000, -772.600000001000 ) );
#439 = AXIS2_PLACEMENT_3D( '', #489, #490, #491 );
#440 = CARTESIAN_POINT( '', ( 12990.6250000000, 1056.60167750000, -760.100000001000 ) );
#441 = VECTOR( '', #492, 1000.00000000000 );
#442 = CARTESIAN_POINT( '', ( 13010.6042027000, 1251.38650689000, -737.772498750000 ) );
#443 = DIRECTION( '', ( 0.000000000000000, -0.898794046254855, 0.438371146879930 ) );
#444 = DIRECTION( '', ( 1.00000000000000, 0.000000000000000, 0.000000000000000 ) );
#445 = DIRECTION( '', ( -1.00000000000000, -0.000000000000000, -0.000000000000000 ) );
#446 = CARTESIAN_POINT( '', ( 12990.6250000000, 1210.15506869000, -733.800000006000 ) );
#447 = DIRECTION( '', ( 1.00000000000000, 0.000000000000000, 0.000000000000000 ) );
#448 = DIRECTION( '', ( 0.000000000000000, 1.00000000000000, 0.000000000000000 ) );
#449 = DIRECTION( '', ( -1.00000000000000, -0.000000000000000, -0.000000000000000 ) );
#450 = CARTESIAN_POINT( '', ( 13031.6250000000, 1210.15506869000, -733.800000006000 ) );
#451 = DIRECTION( '', ( 1.00000000000000, 0.000000000000000, 0.000000000000000 ) );
#452 = DIRECTION( '', ( 0.000000000000000, 1.00000000000000, 0.000000000000000 ) );
#453 = DIRECTION( '', ( -1.00000000000000, 0.000000000000000, 0.000000000000000 ) );
#454 = DIRECTION( '', ( 0.000000000000000, -1.00000000000000, 0.000000000000000 ) );
#455 = DIRECTION( '', ( -1.00000000000000, 0.000000000000000, 0.000000000000000 ) );
#456 = DIRECTION( '', ( 0.000000000000000, -1.00000000000000, 0.000000000000000 ) );
#457 = DIRECTION( '', ( 0.000000000000000, 0.438371146879929, 0.898794046254855 ) );
#458 = CARTESIAN_POINT( '', ( 13031.6250000000, 1263.90295265000, -760.014594588000 ) );
#459 = DIRECTION( '', ( -0.000000000000000, 0.438371146879930, 0.898794046254855 ) );
#460 = DIRECTION( '', ( 1.00000000000000, 0.000000000000000, 0.000000000000000 ) );
#461 = DIRECTION( '', ( 0.000000000000000, 0.438371146879929, 0.898794046254855 ) );
#462 = DIRECTION( '', ( 0.000000000000000, 0.438371146879929, 0.898794046254855 ) );
#463 = CARTESIAN_POINT( '', ( 13010.6042027000, 1273.85635805000, -748.731777422000 ) );
#464 = DIRECTION( '', ( 0.000000000000000, -0.898794046254855, 0.438371146879930 ) );
#465 = DIRECTION( '', ( 1.00000000000000, 0.000000000000000, 0.000000000000000 ) );
#466 = DIRECTION( '', ( 0.000000000000000, 1.00000000000000, 0.000000000000000 ) );
#467 = DIRECTION( '', ( -1.00000000000000, 0.000000000000000, 0.000000000000000 ) );
#468 = DIRECTION( '', ( 0.000000000000000, 1.00000000000000, 0.000000000000000 ) );
#469 = CARTESIAN_POINT( '', ( 13009.9167961000, 1187.65506869000, -797.600000001000 ) );
#470 = DIRECTION( '', ( 0.000000000000000, -0.000000000000000, 1.00000000000000 ) );
#471 = DIRECTION( '', ( 1.00000000000000, 0.000000000000000, 0.000000000000000 ) );
#472 = CARTESIAN_POINT( '', ( 13010.6042027000, 1091.50333628000, -797.600000001000 ) );
#473 = DIRECTION( '', ( 0.000000000000000, -0.000000000000000, 1.00000000000000 ) );
#474 = DIRECTION( '', ( 1.00000000000000, 0.000000000000000, 0.000000000000000 ) );
#475 = CARTESIAN_POINT( '', ( 13010.6042027000, 1091.50333628000, -772.600000001000 ) );
#476 = DIRECTION( '', ( 0.000000000000000, -0.000000000000000, 1.00000000000000 ) );
#477 = DIRECTION( '', ( 1.00000000000000, 0.000000000000000, 0.000000000000000 ) );
#478 = DIRECTION( '', ( 0.000000000000000, 0.000000000000000, -1.00000000000000 ) );
#479 = DIRECTION( '', ( 0.000000000000000, 1.00000000000000, 0.000000000000000 ) );
#480 = CARTESIAN_POINT( '', ( 13035.6250000000, 1210.15506869000, -733.800000006000 ) );
#481 = DIRECTION( '', ( 1.00000000000000, 0.000000000000000, 0.000000000000000 ) );
#482 = DIRECTION( '', ( 0.000000000000000, 1.00000000000000, 0.000000000000000 ) );
#483 = CARTESIAN_POINT( '', ( 13031.6250000000, 1210.15506869000, -793.600000001000 ) );
#484 = DIRECTION( '', ( -0.000000000000000, 1.00000000000000, 0.000000000000000 ) );
#485 = DIRECTION( '', ( 1.00000000000000, 0.000000000000000, 0.000000000000000 ) );
#486 = CARTESIAN_POINT( '', ( 13031.6250000000, 1056.60167750000, -793.600000001000 ) );
#487 = DIRECTION( '', ( -0.000000000000000, 1.00000000000000, 0.000000000000000 ) );
#488 = DIRECTION( '', ( 1.00000000000000, 0.000000000000000, 0.000000000000000 ) );
#489 = CARTESIAN_POINT( '', ( 13009.9167961000, 1187.65506869000, -772.600000001000 ) );
#490 = DIRECTION( '', ( 0.000000000000000, -0.000000000000000, 1.00000000000000 ) );
#491 = DIRECTION( '', ( 1.00000000000000, 0.000000000000000, 0.000000000000000 ) );
#492 = DIRECTION( '', ( 0.000000000000000, 0.000000000000000, -1.00000000000000 ) );
ENDSEC;
END-ISO-10303-21;
