ISO-10303-21;
HEADER;
FILE_DESCRIPTION (( 'STEP AP203' ),
    '1' );
FILE_NAME ('douille prisonnière baton droit.STEP',
    '2023-06-22T06:41:20',
    ( '' ),
    ( '' ),
    'SwSTEP 2.0',
    'SolidWorks 2018',
    '' );
FILE_SCHEMA (( 'CONFIG_CONTROL_DESIGN' ));
ENDSEC;

DATA;
#1 = DATE_AND_TIME ( #111, #165 ) ;
#2 = SECURITY_CLASSIFICATION ( '', '', #216 ) ;
#3 = PLANE ( 'NONE',  #158 ) ;
#4 = ORIENTED_EDGE ( 'NONE', *, *, #159, .F. ) ;
#5 = DIRECTION ( 'NONE',  ( -0.000000000000000000, 0.000000000000000000, 1.000000000000000000 ) ) ;
#6 = DIRECTION ( 'NONE',  ( -1.000000000000000000, -0.000000000000000000, -0.000000000000000000 ) ) ;
#7 = DIRECTION ( 'NONE',  ( -1.000000000000000000, -0.000000000000000000, -0.000000000000000000 ) ) ;
#8 = CC_DESIGN_DATE_AND_TIME_ASSIGNMENT ( #244, #199, ( #269 ) ) ;
#9 = PERSON_AND_ORGANIZATION_ROLE ( 'design_supplier' ) ;
#10 = LINE ( 'NONE', #98, #197 ) ;
#11 = EDGE_LOOP ( 'NONE', ( #53, #141, #207, #4 ) ) ;
#12 = DIRECTION ( 'NONE',  ( 0.000000000000000000, 0.000000000000000000, 1.000000000000000000 ) ) ;
#13 = FACE_OUTER_BOUND ( 'NONE', #267, .T. ) ;
#14 = ORIENTED_EDGE ( 'NONE', *, *, #34, .T. ) ;
#15 = CC_DESIGN_PERSON_AND_ORGANIZATION_ASSIGNMENT ( #55, #109, ( #2 ) ) ;
#16 = DATE_AND_TIME ( #128, #235 ) ;
#17 = APPROVAL ( #174, 'UNSPECIFIED' ) ;
#18 = EDGE_CURVE ( 'NONE', #151, #131, #49, .T. ) ;
#19 = DIRECTION ( 'NONE',  ( -1.000000000000000000, -0.000000000000000000, -0.000000000000000000 ) ) ;
#20 = DIRECTION ( 'NONE',  ( 0.000000000000000000, 0.000000000000000000, 1.000000000000000000 ) ) ;
#21 = LOCAL_TIME ( 8, 41, 20.00000000000000000, #157 ) ;
#22 = CARTESIAN_POINT ( 'NONE',  ( -39.00000000000000000, 1.885956070686923806E-15, -15.40000000000000036 ) ) ;
#23 = ADVANCED_FACE ( 'NONE', ( #13 ), #39, .T. ) ;
#24 = PRODUCT ( 'douille prisonnière baton droit', 'douille prisonnière baton droit', '', ( #149 ) ) ;
#25 = DIRECTION ( 'NONE',  ( -1.000000000000000000, -0.000000000000000000, -0.000000000000000000 ) ) ;
#26 = EDGE_CURVE ( 'NONE', #46, #131, #33, .T. ) ;
#27 = APPROVAL_ROLE ( '' ) ;
#28 = APPROVAL ( #135, 'UNSPECIFIED' ) ;
#29 = CARTESIAN_POINT ( 'NONE',  ( -36.19999999999996732, 0.000000000000000000, 0.000000000000000000 ) ) ;
#30 = PERSON_AND_ORGANIZATION_ROLE ( 'design_owner' ) ;
#31 = PERSON ( 'UNSPECIFIED', 'UNSPECIFIED', 'UNSPECIFIED', ('UNSPECIFIED'), ('UNSPECIFIED'), ('UNSPECIFIED') ) ;
#32 = CC_DESIGN_APPROVAL ( #17, ( #41 ) ) ;
#33 = LINE ( 'NONE', #203, #245 ) ;
#34 = EDGE_CURVE ( 'NONE', #186, #222, #146, .T. ) ;
#35 = ORIENTED_EDGE ( 'NONE', *, *, #70, .F. ) ;
#36 = CIRCLE ( 'NONE', #266, 15.40000000000000036 ) ;
#37 = EDGE_CURVE ( 'NONE', #222, #151, #10, .T. ) ;
#38 = CC_DESIGN_PERSON_AND_ORGANIZATION_ASSIGNMENT ( #52, #134, ( #269 ) ) ;
#39 = CYLINDRICAL_SURFACE ( 'NONE', #94, 15.40000000000000036 ) ;
#40 = EDGE_LOOP ( 'NONE', ( #177, #179, #59, #82 ) ) ;
#41 = PRODUCT_DEFINITION_FORMATION_WITH_SPECIFIED_SOURCE ( 'ANY', '', #24, .NOT_KNOWN. ) ;
#42 = DIRECTION ( 'NONE',  ( -1.000000000000000000, -0.000000000000000000, -0.000000000000000000 ) ) ;
#43 = DIRECTION ( 'NONE',  ( -1.000000000000000000, -0.000000000000000000, -0.000000000000000000 ) ) ;
#44 = UNCERTAINTY_MEASURE_WITH_UNIT (LENGTH_MEASURE( 1.000000000000000082E-05 ), #153, 'distance_accuracy_value', 'NONE');
#45 = FACE_OUTER_BOUND ( 'NONE', #198, .T. ) ;
#46 = VERTEX_POINT ( 'NONE', #163 ) ;
#47 = CARTESIAN_POINT ( 'NONE',  ( -36.19999999999996732, 1.543054966925664484E-15, -12.59999999999999432 ) ) ;
#48 = CIRCLE ( 'NONE', #155, 15.40000000000000036 ) ;
#49 = LINE ( 'NONE', #80, #123 ) ;
#50 = LOCAL_TIME ( 8, 41, 20.00000000000000000, #91 ) ;
#51 = EDGE_CURVE ( 'NONE', #260, #113, #193, .T. ) ;
#52 = PERSON_AND_ORGANIZATION ( #31, #87 ) ;
#53 = ORIENTED_EDGE ( 'NONE', *, *, #83, .F. ) ;
#54 = CARTESIAN_POINT ( 'NONE',  ( 0.000000000000000000, 0.000000000000000000, 0.000000000000000000 ) ) ;
#55 = PERSON_AND_ORGANIZATION ( #31, #87 ) ;
#56 = CARTESIAN_POINT ( 'NONE',  ( -39.00000000000000000, 1.885956070686923806E-15, -15.40000000000000036 ) ) ;
#57 = DIRECTION ( 'NONE',  ( -1.000000000000000000, -0.000000000000000000, -0.000000000000000000 ) ) ;
#58 = CALENDAR_DATE ( 2023, 22, 6 ) ;
#59 = ORIENTED_EDGE ( 'NONE', *, *, #37, .T. ) ;
#60 = DIRECTION ( 'NONE',  ( -1.000000000000000000, -0.000000000000000000, -0.000000000000000000 ) ) ;
#61 = CALENDAR_DATE ( 2023, 22, 6 ) ;
#62 = FACE_BOUND ( 'NONE', #126, .T. ) ;
#63 = ORIENTED_EDGE ( 'NONE', *, *, #83, .T. ) ;
#64 = AXIS2_PLACEMENT_3D ( 'NONE', #101, #232, #85 ) ;
#65 = APPLICATION_CONTEXT ( 'configuration controlled 3d designs of mechanical parts and assemblies' ) ;
#66 = ADVANCED_FACE ( 'NONE', ( #206 ), #229, .F. ) ;
#67 = APPLICATION_PROTOCOL_DEFINITION ( 'international standard', 'config_control_design', 1994, #65 ) ;
#68 =( GEOMETRIC_REPRESENTATION_CONTEXT ( 3 ) GLOBAL_UNCERTAINTY_ASSIGNED_CONTEXT ( ( #44 ) ) GLOBAL_UNIT_ASSIGNED_CONTEXT ( ( #153, #219, #261 ) ) REPRESENTATION_CONTEXT ( 'NONE', 'WORKASPACE' ) );
#69 = LOCAL_TIME ( 8, 41, 20.00000000000000000, #220 ) ;
#70 = EDGE_CURVE ( 'NONE', #260, #151, #75, .T. ) ;
#71 = VERTEX_POINT ( 'NONE', #253 ) ;
#72 = DIRECTION ( 'NONE',  ( 0.000000000000000000, 0.000000000000000000, 1.000000000000000000 ) ) ;
#73 = DIRECTION ( 'NONE',  ( -1.000000000000000000, -0.000000000000000000, -0.000000000000000000 ) ) ;
#74 = FACE_OUTER_BOUND ( 'NONE', #11, .T. ) ;
#75 = CIRCLE ( 'NONE', #64, 12.59999999999999432 ) ;
#76 = CC_DESIGN_PERSON_AND_ORGANIZATION_ASSIGNMENT ( #106, #9, ( #41 ) ) ;
#77 = ORIENTED_EDGE ( 'NONE', *, *, #26, .F. ) ;
#78 = DATE_AND_TIME ( #239, #50 ) ;
#79 = AXIS2_PLACEMENT_3D ( 'NONE', #147, #25, #214 ) ;
#80 = CARTESIAN_POINT ( 'NONE',  ( -39.00000000000000000, 0.000000000000000000, 15.40000000000000036 ) ) ;
#81 = VECTOR ( 'NONE', #234, 1000.000000000000114 ) ;
#82 = ORIENTED_EDGE ( 'NONE', *, *, #258, .T. ) ;
#83 = EDGE_CURVE ( 'NONE', #71, #113, #210, .T. ) ;
#84 = CARTESIAN_POINT ( 'NONE',  ( 1.714505518806293898E-16, 15.40000000000000036, 0.000000000000000000 ) ) ;
#85 = DIRECTION ( 'NONE',  ( 0.000000000000000000, 0.000000000000000000, 1.000000000000000000 ) ) ;
#86 = CARTESIAN_POINT ( 'NONE',  ( -39.00000000000000000, 0.000000000000000000, 15.40000000000000036 ) ) ;
#87 = ORGANIZATION ( 'UNSPECIFIED', 'UNSPECIFIED', '' ) ;
#88 = DIRECTION ( 'NONE',  ( -1.000000000000000000, 0.000000000000000000, -0.000000000000000000 ) ) ;
#89 = CARTESIAN_POINT ( 'NONE',  ( -61.27549829568431505, 0.000000000000000000, 0.000000000000000000 ) ) ;
#90 = ORIENTED_EDGE ( 'NONE', *, *, #70, .T. ) ;
#91 = COORDINATED_UNIVERSAL_TIME_OFFSET ( 1, 0, .AHEAD. ) ;
#92 = CC_DESIGN_PERSON_AND_ORGANIZATION_ASSIGNMENT ( #200, #30, ( #24 ) ) ;
#93 = CIRCLE ( 'NONE', #250, 12.59999999999999964 ) ;
#94 = AXIS2_PLACEMENT_3D ( 'NONE', #181, #57, #183 ) ;
#95 = FACE_OUTER_BOUND ( 'NONE', #201, .T. ) ;
#96 = ORIENTED_EDGE ( 'NONE', *, *, #118, .T. ) ;
#97 = EDGE_CURVE ( 'NONE', #222, #186, #93, .T. ) ;
#98 = CARTESIAN_POINT ( 'NONE',  ( -61.27549829568431505, 0.000000000000000000, 12.59999999999999609 ) ) ;
#99 = APPROVAL ( #176, 'UNSPECIFIED' ) ;
#100 = CYLINDRICAL_SURFACE ( 'NONE', #79, 12.59999999999999609 ) ;
#101 = CARTESIAN_POINT ( 'NONE',  ( -36.19999999999996732, 0.000000000000000000, 0.000000000000000000 ) ) ;
#102 = CARTESIAN_POINT ( 'NONE',  ( 0.000000000000000000, 1.543054966925665076E-15, -12.59999999999999964 ) ) ;
#103 = CC_DESIGN_DATE_AND_TIME_ASSIGNMENT ( #162, #172, ( #2 ) ) ;
#104 = ADVANCED_FACE ( 'NONE', ( #259, #62 ), #3, .F. ) ;
#105 = CARTESIAN_POINT ( 'NONE',  ( -39.00000000000000000, 0.000000000000000000, 0.000000000000000000 ) ) ;
#106 = PERSON_AND_ORGANIZATION ( #31, #87 ) ;
#107 = APPROVAL_ROLE ( '' ) ;
#108 = VECTOR ( 'NONE', #7, 1000.000000000000000 ) ;
#109 = PERSON_AND_ORGANIZATION_ROLE ( 'classification_officer' ) ;
#110 = DIRECTION ( 'NONE',  ( -1.000000000000000000, -0.000000000000000000, -0.000000000000000000 ) ) ;
#111 = CALENDAR_DATE ( 2023, 22, 6 ) ;
#112 = CARTESIAN_POINT ( 'NONE',  ( 0.000000000000000000, 0.000000000000000000, 0.000000000000000000 ) ) ;
#113 = VERTEX_POINT ( 'NONE', #22 ) ;
#114 = APPROVAL_PERSON_ORGANIZATION ( #221, #28, #27 ) ;
#115 = PRODUCT_RELATED_PRODUCT_CATEGORY ( 'detail', '', ( #24 ) ) ;
#116 = ORIENTED_EDGE ( 'NONE', *, *, #51, .F. ) ;
#117 = ORIENTED_EDGE ( 'NONE', *, *, #18, .F. ) ;
#118 = EDGE_CURVE ( 'NONE', #186, #260, #202, .T. ) ;
#119 = APPROVAL_DATE_TIME ( #78, #28 ) ;
#120 = CIRCLE ( 'NONE', #257, 15.40000000000000036 ) ;
#121 = PERSON_AND_ORGANIZATION ( #31, #87 ) ;
#122 = CC_DESIGN_SECURITY_CLASSIFICATION ( #2, ( #41 ) ) ;
#123 = VECTOR ( 'NONE', #161, 1000.000000000000114 ) ;
#124 = DESIGN_CONTEXT ( 'detailed design', #238, 'design' ) ;
#125 = APPROVAL_PERSON_ORGANIZATION ( #213, #99, #248 ) ;
#126 = EDGE_LOOP ( 'NONE', ( #224, #14 ) ) ;
#127 = CARTESIAN_POINT ( 'NONE',  ( 0.000000000000000000, 0.000000000000000000, 0.000000000000000000 ) ) ;
#128 = CALENDAR_DATE ( 2023, 22, 6 ) ;
#129 = CONICAL_SURFACE ( 'NONE', #247, 15.40000000000000036, 0.7853981633974437271 ) ;
#130 = CARTESIAN_POINT ( 'NONE',  ( -61.27549829568431505, 1.543054966925664681E-15, -12.59999999999999609 ) ) ;
#131 = VERTEX_POINT ( 'NONE', #86 ) ;
#132 = PERSON_AND_ORGANIZATION_ROLE ( 'creator' ) ;
#133 = EDGE_CURVE ( 'NONE', #46, #71, #150, .T. ) ;
#134 = PERSON_AND_ORGANIZATION_ROLE ( 'creator' ) ;
#135 = APPROVAL_STATUS ( 'not_yet_approved' ) ;
#136 = PRODUCT_DEFINITION_SHAPE ( 'NONE', 'NONE',  #269 ) ;
#137 = ORIENTED_EDGE ( 'NONE', *, *, #133, .T. ) ;
#138 = DIRECTION ( 'NONE',  ( -1.000000000000000000, -0.000000000000000000, -0.000000000000000000 ) ) ;
#139 = AXIS2_PLACEMENT_3D ( 'NONE', #105, #233, #254 ) ;
#140 = EDGE_LOOP ( 'NONE', ( #217, #185 ) ) ;
#141 = ORIENTED_EDGE ( 'NONE', *, *, #264, .T. ) ;
#142 = DIRECTION ( 'NONE',  ( 0.000000000000000000, 0.000000000000000000, 1.000000000000000000 ) ) ;
#143 = DIRECTION ( 'NONE',  ( -1.000000000000000000, -0.000000000000000000, -0.000000000000000000 ) ) ;
#144 = CARTESIAN_POINT ( 'NONE',  ( -39.00000000000000000, 0.000000000000000000, 0.000000000000000000 ) ) ;
#145 = CIRCLE ( 'NONE', #191, 12.59999999999999432 ) ;
#146 = CIRCLE ( 'NONE', #184, 12.59999999999999964 ) ;
#147 = CARTESIAN_POINT ( 'NONE',  ( -61.27549829568431505, 0.000000000000000000, 0.000000000000000000 ) ) ;
#148 = CARTESIAN_POINT ( 'NONE',  ( 0.000000000000000000, 0.000000000000000000, 0.000000000000000000 ) ) ;
#149 = MECHANICAL_CONTEXT ( 'NONE', #65, 'mechanical' ) ;
#150 = CIRCLE ( 'NONE', #231, 15.40000000000000036 ) ;
#151 = VERTEX_POINT ( 'NONE', #166 ) ;
#152 = DIRECTION ( 'NONE',  ( 0.000000000000000000, 0.000000000000000000, 1.000000000000000000 ) ) ;
#153 =( LENGTH_UNIT ( ) NAMED_UNIT ( * ) SI_UNIT ( .MILLI., .METRE. ) );
#154 = APPROVAL_PERSON_ORGANIZATION ( #180, #17, #107 ) ;
#155 = AXIS2_PLACEMENT_3D ( 'NONE', #262, #73, #72 ) ;
#156 = DIRECTION ( 'NONE',  ( 1.000000000000000000, 0.000000000000000000, 0.000000000000000000 ) ) ;
#157 = COORDINATED_UNIVERSAL_TIME_OFFSET ( 1, 0, .AHEAD. ) ;
#158 = AXIS2_PLACEMENT_3D ( 'NONE', #84, #88, #5 ) ;
#159 = EDGE_CURVE ( 'NONE', #113, #131, #36, .T. ) ;
#160 = SHAPE_DEFINITION_REPRESENTATION ( #136, #195 ) ;
#161 = DIRECTION ( 'NONE',  ( -0.7071067811865507924, 0.000000000000000000, 0.7071067811865441310 ) ) ;
#162 = DATE_AND_TIME ( #58, #69 ) ;
#163 = CARTESIAN_POINT ( 'NONE',  ( 0.000000000000000000, 0.000000000000000000, 15.40000000000000036 ) ) ;
#164 = ORIENTED_EDGE ( 'NONE', *, *, #159, .T. ) ;
#165 = LOCAL_TIME ( 8, 41, 20.00000000000000000, #223 ) ;
#166 = CARTESIAN_POINT ( 'NONE',  ( -36.19999999999996732, 0.000000000000000000, 12.59999999999999432 ) ) ;
#167 = CARTESIAN_POINT ( 'NONE',  ( -61.27549829568431505, 0.000000000000000000, 0.000000000000000000 ) ) ;
#168 = CARTESIAN_POINT ( 'NONE',  ( 0.000000000000000000, 0.000000000000000000, 12.59999999999999964 ) ) ;
#169 = VECTOR ( 'NONE', #143, 1000.000000000000000 ) ;
#170 = ORIENTED_EDGE ( 'NONE', *, *, #258, .F. ) ;
#171 = DIRECTION ( 'NONE',  ( 0.000000000000000000, 0.000000000000000000, 1.000000000000000000 ) ) ;
#172 = DATE_TIME_ROLE ( 'classification_date' ) ;
#173 = ORIENTED_EDGE ( 'NONE', *, *, #51, .T. ) ;
#174 = APPROVAL_STATUS ( 'not_yet_approved' ) ;
#175 = COORDINATED_UNIVERSAL_TIME_OFFSET ( 1, 0, .AHEAD. ) ;
#176 = APPROVAL_STATUS ( 'not_yet_approved' ) ;
#177 = ORIENTED_EDGE ( 'NONE', *, *, #118, .F. ) ;
#178 = APPROVAL_DATE_TIME ( #16, #17 ) ;
#179 = ORIENTED_EDGE ( 'NONE', *, *, #97, .F. ) ;
#180 = PERSON_AND_ORGANIZATION ( #31, #87 ) ;
#181 = CARTESIAN_POINT ( 'NONE',  ( -61.27549829568431505, 0.000000000000000000, 0.000000000000000000 ) ) ;
#182 = MANIFOLD_SOLID_BREP ( 'Révolution1', #268 ) ;
#183 = DIRECTION ( 'NONE',  ( 0.000000000000000000, 0.000000000000000000, 1.000000000000000000 ) ) ;
#184 = AXIS2_PLACEMENT_3D ( 'NONE', #54, #205, #227 ) ;
#185 = ORIENTED_EDGE ( 'NONE', *, *, #264, .F. ) ;
#186 = VERTEX_POINT ( 'NONE', #102 ) ;
#187 = CARTESIAN_POINT ( 'NONE',  ( -39.00000000000000000, 0.000000000000000000, 0.000000000000000000 ) ) ;
#188 = DIRECTION ( 'NONE',  ( 0.000000000000000000, 0.000000000000000000, 1.000000000000000000 ) ) ;
#189 = DIRECTION ( 'NONE',  ( 0.000000000000000000, 0.000000000000000000, 1.000000000000000000 ) ) ;
#190 = DIRECTION ( 'NONE',  ( 0.000000000000000000, 0.000000000000000000, 1.000000000000000000 ) ) ;
#191 = AXIS2_PLACEMENT_3D ( 'NONE', #29, #194, #152 ) ;
#192 = ADVANCED_FACE ( 'NONE', ( #45 ), #129, .F. ) ;
#193 = LINE ( 'NONE', #56, #81 ) ;
#194 = DIRECTION ( 'NONE',  ( -1.000000000000000000, -0.000000000000000000, -0.000000000000000000 ) ) ;
#195 = ADVANCED_BREP_SHAPE_REPRESENTATION ( 'douille prisonniÞre baton droit', ( #182, #209 ), #68 ) ;
#196 = ADVANCED_FACE ( 'NONE', ( #255 ), #100, .F. ) ;
#197 = VECTOR ( 'NONE', #138, 1000.000000000000000 ) ;
#198 = EDGE_LOOP ( 'NONE', ( #116, #170, #237, #230 ) ) ;
#199 = DATE_TIME_ROLE ( 'creation_date' ) ;
#200 = PERSON_AND_ORGANIZATION ( #31, #87 ) ;
#201 = EDGE_LOOP ( 'NONE', ( #242, #96, #90, #265 ) ) ;
#202 = LINE ( 'NONE', #130, #108 ) ;
#203 = CARTESIAN_POINT ( 'NONE',  ( -61.27549829568431505, 0.000000000000000000, 15.40000000000000036 ) ) ;
#204 = CC_DESIGN_APPROVAL ( #28, ( #269 ) ) ;
#205 = DIRECTION ( 'NONE',  ( -1.000000000000000000, -0.000000000000000000, -0.000000000000000000 ) ) ;
#206 = FACE_OUTER_BOUND ( 'NONE', #246, .T. ) ;
#207 = ORIENTED_EDGE ( 'NONE', *, *, #26, .T. ) ;
#208 = APPROVAL_DATE_TIME ( #1, #99 ) ;
#209 = AXIS2_PLACEMENT_3D ( 'NONE', #218, #171, #156 ) ;
#210 = LINE ( 'NONE', #252, #169 ) ;
#211 = ADVANCED_FACE ( 'NONE', ( #95 ), #236, .F. ) ;
#212 = DIRECTION ( 'NONE',  ( -1.000000000000000000, -0.000000000000000000, -0.000000000000000000 ) ) ;
#213 = PERSON_AND_ORGANIZATION ( #31, #87 ) ;
#214 = DIRECTION ( 'NONE',  ( 0.000000000000000000, 0.000000000000000000, 1.000000000000000000 ) ) ;
#215 = CYLINDRICAL_SURFACE ( 'NONE', #249, 15.40000000000000036 ) ;
#216 = SECURITY_CLASSIFICATION_LEVEL ( 'unclassified' ) ;
#217 = ORIENTED_EDGE ( 'NONE', *, *, #133, .F. ) ;
#218 = CARTESIAN_POINT ( 'NONE',  ( 0.000000000000000000, 0.000000000000000000, 0.000000000000000000 ) ) ;
#219 =( NAMED_UNIT ( * ) PLANE_ANGLE_UNIT ( ) SI_UNIT ( $, .RADIAN. ) );
#220 = COORDINATED_UNIVERSAL_TIME_OFFSET ( 1, 0, .AHEAD. ) ;
#221 = PERSON_AND_ORGANIZATION ( #31, #87 ) ;
#222 = VERTEX_POINT ( 'NONE', #168 ) ;
#223 = COORDINATED_UNIVERSAL_TIME_OFFSET ( 1, 0, .AHEAD. ) ;
#224 = ORIENTED_EDGE ( 'NONE', *, *, #97, .T. ) ;
#225 = CC_DESIGN_PERSON_AND_ORGANIZATION_ASSIGNMENT ( #121, #132, ( #41 ) ) ;
#226 = DIRECTION ( 'NONE',  ( -1.000000000000000000, -0.000000000000000000, -0.000000000000000000 ) ) ;
#227 = DIRECTION ( 'NONE',  ( 0.000000000000000000, 0.000000000000000000, 1.000000000000000000 ) ) ;
#228 = EDGE_CURVE ( 'NONE', #131, #113, #48, .T. ) ;
#229 = CONICAL_SURFACE ( 'NONE', #139, 15.40000000000000036, 0.7853981633974437271 ) ;
#230 = ORIENTED_EDGE ( 'NONE', *, *, #228, .T. ) ;
#231 = AXIS2_PLACEMENT_3D ( 'NONE', #148, #212, #188 ) ;
#232 = DIRECTION ( 'NONE',  ( -1.000000000000000000, -0.000000000000000000, -0.000000000000000000 ) ) ;
#233 = DIRECTION ( 'NONE',  ( -1.000000000000000000, -0.000000000000000000, -0.000000000000000000 ) ) ;
#234 = DIRECTION ( 'NONE',  ( -0.7071067811865507924, 8.659560562354892183E-17, -0.7071067811865441310 ) ) ;
#235 = LOCAL_TIME ( 8, 41, 20.00000000000000000, #175 ) ;
#236 = CYLINDRICAL_SURFACE ( 'NONE', #263, 12.59999999999999609 ) ;
#237 = ORIENTED_EDGE ( 'NONE', *, *, #18, .T. ) ;
#238 = APPLICATION_CONTEXT ( 'configuration controlled 3d designs of mechanical parts and assemblies' ) ;
#239 = CALENDAR_DATE ( 2023, 22, 6 ) ;
#240 = APPLICATION_PROTOCOL_DEFINITION ( 'international standard', 'config_control_design', 1994, #238 ) ;
#241 = DIRECTION ( 'NONE',  ( 0.000000000000000000, 0.000000000000000000, 1.000000000000000000 ) ) ;
#242 = ORIENTED_EDGE ( 'NONE', *, *, #34, .F. ) ;
#243 = CC_DESIGN_APPROVAL ( #99, ( #2 ) ) ;
#244 = DATE_AND_TIME ( #61, #21 ) ;
#245 = VECTOR ( 'NONE', #226, 1000.000000000000000 ) ;
#246 = EDGE_LOOP ( 'NONE', ( #35, #173, #164, #117 ) ) ;
#247 = AXIS2_PLACEMENT_3D ( 'NONE', #144, #19, #190 ) ;
#248 = APPROVAL_ROLE ( '' ) ;
#249 = AXIS2_PLACEMENT_3D ( 'NONE', #89, #60, #241 ) ;
#250 = AXIS2_PLACEMENT_3D ( 'NONE', #127, #6, #20 ) ;
#251 = ORIENTED_EDGE ( 'NONE', *, *, #228, .F. ) ;
#252 = CARTESIAN_POINT ( 'NONE',  ( -61.27549829568431505, 1.885956070686923806E-15, -15.40000000000000036 ) ) ;
#253 = CARTESIAN_POINT ( 'NONE',  ( 0.000000000000000000, 1.885956070686923806E-15, -15.40000000000000036 ) ) ;
#254 = DIRECTION ( 'NONE',  ( 0.000000000000000000, 0.000000000000000000, 1.000000000000000000 ) ) ;
#255 = FACE_OUTER_BOUND ( 'NONE', #40, .T. ) ;
#256 = ADVANCED_FACE ( 'NONE', ( #74 ), #215, .T. ) ;
#257 = AXIS2_PLACEMENT_3D ( 'NONE', #112, #110, #12 ) ;
#258 = EDGE_CURVE ( 'NONE', #151, #260, #145, .T. ) ;
#259 = FACE_OUTER_BOUND ( 'NONE', #140, .T. ) ;
#260 = VERTEX_POINT ( 'NONE', #47 ) ;
#261 =( NAMED_UNIT ( * ) SI_UNIT ( $, .STERADIAN. ) SOLID_ANGLE_UNIT ( ) );
#262 = CARTESIAN_POINT ( 'NONE',  ( -39.00000000000000000, 0.000000000000000000, 0.000000000000000000 ) ) ;
#263 = AXIS2_PLACEMENT_3D ( 'NONE', #167, #42, #189 ) ;
#264 = EDGE_CURVE ( 'NONE', #71, #46, #120, .T. ) ;
#265 = ORIENTED_EDGE ( 'NONE', *, *, #37, .F. ) ;
#266 = AXIS2_PLACEMENT_3D ( 'NONE', #187, #43, #142 ) ;
#267 = EDGE_LOOP ( 'NONE', ( #137, #63, #251, #77 ) ) ;
#268 = CLOSED_SHELL ( 'NONE', ( #66, #211, #23, #256, #104, #196, #192 ) ) ;
#269 = PRODUCT_DEFINITION ( 'UNKNOWN', '', #41, #124 ) ;
ENDSEC;
END-ISO-10303-21;
