ISO-10303-21;
HEADER;
FILE_DESCRIPTION((''),'2;1');
FILE_NAME('PLOT_PLASTIK_FULMEN','2023-07-04T11:53:56',('e.toretta'),(''),
'CREO PARAMETRIC BY PTC INC, 2020281','CREO PARAMETRIC BY PTC INC, 2020281','');
FILE_SCHEMA(('AUTOMOTIVE_DESIGN { 1 0 10303 214 1 1 1 1 }'));
ENDSEC;
DATA;
#195=CARTESIAN_POINT('',(0.E0,1.9E1,0.E0));
#196=DIRECTION('',(0.E0,1.E0,0.E0));
#197=DIRECTION('',(0.E0,0.E0,-1.E0));
#198=AXIS2_PLACEMENT_3D('',#195,#196,#197);
#200=DIRECTION('',(0.E0,-1.E0,0.E0));
#201=VECTOR('',#200,1.645E1);
#202=CARTESIAN_POINT('',(0.E0,1.9E1,-2.75E0));
#203=LINE('',#202,#201);
#204=CARTESIAN_POINT('',(0.E0,1.9E1,0.E0));
#205=DIRECTION('',(0.E0,-1.E0,0.E0));
#206=DIRECTION('',(0.E0,0.E0,-1.E0));
#207=AXIS2_PLACEMENT_3D('',#204,#205,#206);
#209=DIRECTION('',(0.E0,-1.E0,0.E0));
#210=VECTOR('',#209,1.645E1);
#211=CARTESIAN_POINT('',(0.E0,1.9E1,2.75E0));
#212=LINE('',#211,#210);
#213=CARTESIAN_POINT('',(0.E0,1.9E1,0.E0));
#214=DIRECTION('',(0.E0,1.E0,0.E0));
#215=DIRECTION('',(0.E0,0.E0,-1.E0));
#216=AXIS2_PLACEMENT_3D('',#213,#214,#215);
#218=CARTESIAN_POINT('',(0.E0,1.9E1,0.E0));
#219=DIRECTION('',(0.E0,-1.E0,0.E0));
#220=DIRECTION('',(0.E0,0.E0,-1.E0));
#221=AXIS2_PLACEMENT_3D('',#218,#219,#220);
#223=CARTESIAN_POINT('',(0.E0,1.7E1,0.E0));
#224=DIRECTION('',(0.E0,1.E0,0.E0));
#225=DIRECTION('',(0.E0,0.E0,-1.E0));
#226=AXIS2_PLACEMENT_3D('',#223,#224,#225);
#228=DIRECTION('',(0.E0,1.E0,0.E0));
#229=VECTOR('',#228,2.E0);
#230=CARTESIAN_POINT('',(0.E0,1.7E1,-4.6E0));
#231=LINE('',#230,#229);
#232=CARTESIAN_POINT('',(0.E0,1.7E1,0.E0));
#233=DIRECTION('',(0.E0,-1.E0,0.E0));
#234=DIRECTION('',(0.E0,0.E0,-1.E0));
#235=AXIS2_PLACEMENT_3D('',#232,#233,#234);
#237=DIRECTION('',(0.E0,1.E0,0.E0));
#238=VECTOR('',#237,2.E0);
#239=CARTESIAN_POINT('',(0.E0,1.7E1,4.6E0));
#240=LINE('',#239,#238);
#241=CARTESIAN_POINT('',(0.E0,1.7E1,0.E0));
#242=DIRECTION('',(0.E0,1.E0,0.E0));
#243=DIRECTION('',(0.E0,0.E0,-1.E0));
#244=AXIS2_PLACEMENT_3D('',#241,#242,#243);
#246=CARTESIAN_POINT('',(0.E0,1.7E1,0.E0));
#247=DIRECTION('',(0.E0,-1.E0,0.E0));
#248=DIRECTION('',(0.E0,0.E0,-1.E0));
#249=AXIS2_PLACEMENT_3D('',#246,#247,#248);
#251=CARTESIAN_POINT('',(0.E0,7.E-1,0.E0));
#252=DIRECTION('',(0.E0,1.E0,0.E0));
#253=DIRECTION('',(0.E0,0.E0,-1.E0));
#254=AXIS2_PLACEMENT_3D('',#251,#252,#253);
#256=DIRECTION('',(3.913282584366E-9,-7.071067811865E-1,7.071067811866E-1));
#257=VECTOR('',#256,9.899494951630E-1);
#258=CARTESIAN_POINT('',(1.369453606497E-8,6.999999962460E-1,
-1.849999999625E1));
#259=LINE('',#258,#257);
#260=DIRECTION('',(-3.913284418891E-9,-7.071067811865E-1,-7.071067811865E-1));
#261=VECTOR('',#260,9.899494951630E-1);
#262=CARTESIAN_POINT('',(-1.369454169968E-8,6.999999962460E-1,
1.849999999625E1));
#263=LINE('',#262,#261);
#264=CARTESIAN_POINT('',(0.E0,7.E-1,0.E0));
#265=DIRECTION('',(0.E0,1.E0,0.E0));
#266=DIRECTION('',(0.E0,0.E0,1.E0));
#267=AXIS2_PLACEMENT_3D('',#264,#265,#266);
#269=DIRECTION('',(8.401557642927E-10,1.E0,2.303069527331E-10));
#270=VECTOR('',#269,1.630000000375E1);
#271=CARTESIAN_POINT('',(-1.369454169968E-8,6.999999962460E-1,
1.849999999625E1));
#272=LINE('',#271,#270);
#273=DIRECTION('',(-8.401555866143E-10,1.E0,-2.303069527331E-10));
#274=VECTOR('',#273,1.630000000375E1);
#275=CARTESIAN_POINT('',(1.369453606497E-8,6.999999962460E-1,
-1.849999999625E1));
#276=LINE('',#275,#274);
#277=CARTESIAN_POINT('',(0.E0,0.E0,0.E0));
#278=DIRECTION('',(0.E0,1.E0,0.E0));
#279=DIRECTION('',(0.E0,0.E0,-1.E0));
#280=AXIS2_PLACEMENT_3D('',#277,#278,#279);
#282=CARTESIAN_POINT('',(0.E0,0.E0,0.E0));
#283=DIRECTION('',(0.E0,-1.E0,0.E0));
#284=DIRECTION('',(0.E0,0.E0,-1.E0));
#285=AXIS2_PLACEMENT_3D('',#282,#283,#284);
#287=CARTESIAN_POINT('',(-4.684524186556E-14,0.E0,0.E0));
#288=DIRECTION('',(0.E0,1.E0,0.E0));
#289=DIRECTION('',(0.E0,0.E0,-1.E0));
#290=AXIS2_PLACEMENT_3D('',#287,#288,#289);
#292=CARTESIAN_POINT('',(0.E0,0.E0,0.E0));
#293=DIRECTION('',(0.E0,1.E0,0.E0));
#294=DIRECTION('',(0.E0,0.E0,1.E0));
#295=AXIS2_PLACEMENT_3D('',#292,#293,#294);
#297=CARTESIAN_POINT('',(0.E0,2.55E0,0.E0));
#298=DIRECTION('',(0.E0,1.E0,0.E0));
#299=DIRECTION('',(0.E0,0.E0,-1.E0));
#300=AXIS2_PLACEMENT_3D('',#297,#298,#299);
#302=DIRECTION('',(0.E0,-7.071067811865E-1,-7.071067811865E-1));
#303=VECTOR('',#302,3.606244584051E0);
#304=CARTESIAN_POINT('',(0.E0,2.55E0,-2.75E0));
#305=LINE('',#304,#303);
#306=CARTESIAN_POINT('',(0.E0,2.55E0,0.E0));
#307=DIRECTION('',(0.E0,-1.E0,0.E0));
#308=DIRECTION('',(0.E0,0.E0,-1.E0));
#309=AXIS2_PLACEMENT_3D('',#306,#307,#308);
#311=DIRECTION('',(0.E0,-7.071067811865E-1,7.071067811865E-1));
#312=VECTOR('',#311,3.606244584051E0);
#313=CARTESIAN_POINT('',(0.E0,2.55E0,2.75E0));
#314=LINE('',#313,#312);
#315=CARTESIAN_POINT('',(0.E0,1.9E1,-2.75E0));
#316=CARTESIAN_POINT('',(0.E0,2.55E0,-2.75E0));
#317=VERTEX_POINT('',#315);
#318=VERTEX_POINT('',#316);
#319=CARTESIAN_POINT('',(0.E0,0.E0,-5.3E0));
#320=VERTEX_POINT('',#319);
#321=CARTESIAN_POINT('',(0.E0,1.7E1,-4.6E0));
#322=CARTESIAN_POINT('',(0.E0,1.9E1,-4.6E0));
#323=VERTEX_POINT('',#321);
#324=VERTEX_POINT('',#322);
#325=CARTESIAN_POINT('',(0.E0,1.9E1,2.75E0));
#326=CARTESIAN_POINT('',(0.E0,2.55E0,2.75E0));
#327=VERTEX_POINT('',#325);
#328=VERTEX_POINT('',#326);
#329=CARTESIAN_POINT('',(0.E0,0.E0,5.3E0));
#330=VERTEX_POINT('',#329);
#331=CARTESIAN_POINT('',(0.E0,1.7E1,4.6E0));
#332=CARTESIAN_POINT('',(0.E0,1.9E1,4.6E0));
#333=VERTEX_POINT('',#331);
#334=VERTEX_POINT('',#332);
#335=CARTESIAN_POINT('',(0.E0,1.7E1,-1.85E1));
#336=CARTESIAN_POINT('',(0.E0,1.7E1,1.85E1));
#337=VERTEX_POINT('',#335);
#338=VERTEX_POINT('',#336);
#339=CARTESIAN_POINT('',(0.E0,7.E-1,-1.85E1));
#340=CARTESIAN_POINT('',(0.E0,7.E-1,1.85E1));
#341=VERTEX_POINT('',#339);
#342=VERTEX_POINT('',#340);
#343=CARTESIAN_POINT('',(0.E0,0.E0,-1.78E1));
#344=CARTESIAN_POINT('',(0.E0,0.E0,1.78E1));
#345=VERTEX_POINT('',#343);
#346=VERTEX_POINT('',#344);
#347=CARTESIAN_POINT('',(0.E0,-9.5E-1,0.E0));
#348=DIRECTION('',(0.E0,1.E0,0.E0));
#349=DIRECTION('',(0.E0,0.E0,-1.E0));
#350=AXIS2_PLACEMENT_3D('',#347,#348,#349);
#351=CYLINDRICAL_SURFACE('',#350,2.75E0);
#353=ORIENTED_EDGE('',*,*,#352,.T.);
#355=ORIENTED_EDGE('',*,*,#354,.T.);
#357=ORIENTED_EDGE('',*,*,#356,.F.);
#359=ORIENTED_EDGE('',*,*,#358,.F.);
#360=EDGE_LOOP('',(#353,#355,#357,#359));
#361=FACE_OUTER_BOUND('',#360,.F.);
#363=CARTESIAN_POINT('',(0.E0,-9.5E-1,0.E0));
#364=DIRECTION('',(0.E0,1.E0,0.E0));
#365=DIRECTION('',(0.E0,0.E0,-1.E0));
#366=AXIS2_PLACEMENT_3D('',#363,#364,#365);
#367=CYLINDRICAL_SURFACE('',#366,2.75E0);
#368=ORIENTED_EDGE('',*,*,#352,.F.);
#370=ORIENTED_EDGE('',*,*,#369,.T.);
#371=ORIENTED_EDGE('',*,*,#356,.T.);
#373=ORIENTED_EDGE('',*,*,#372,.F.);
#374=EDGE_LOOP('',(#368,#370,#371,#373));
#375=FACE_OUTER_BOUND('',#374,.F.);
#377=CARTESIAN_POINT('',(0.E0,1.9E1,0.E0));
#378=DIRECTION('',(0.E0,1.E0,0.E0));
#379=DIRECTION('',(0.E0,0.E0,-1.E0));
#380=AXIS2_PLACEMENT_3D('',#377,#378,#379);
#381=PLANE('',#380);
#383=ORIENTED_EDGE('',*,*,#382,.F.);
#385=ORIENTED_EDGE('',*,*,#384,.T.);
#386=EDGE_LOOP('',(#383,#385));
#387=FACE_OUTER_BOUND('',#386,.F.);
#388=ORIENTED_EDGE('',*,*,#369,.F.);
#389=ORIENTED_EDGE('',*,*,#358,.T.);
#390=EDGE_LOOP('',(#388,#389));
#391=FACE_BOUND('',#390,.F.);
#393=CARTESIAN_POINT('',(0.E0,-9.5E-1,0.E0));
#394=DIRECTION('',(0.E0,1.E0,0.E0));
#395=DIRECTION('',(0.E0,0.E0,-1.E0));
#396=AXIS2_PLACEMENT_3D('',#393,#394,#395);
#397=CYLINDRICAL_SURFACE('',#396,4.6E0);
#399=ORIENTED_EDGE('',*,*,#398,.T.);
#400=ORIENTED_EDGE('',*,*,#382,.T.);
#402=ORIENTED_EDGE('',*,*,#401,.F.);
#404=ORIENTED_EDGE('',*,*,#403,.F.);
#405=EDGE_LOOP('',(#399,#400,#402,#404));
#406=FACE_OUTER_BOUND('',#405,.F.);
#408=CARTESIAN_POINT('',(0.E0,-9.5E-1,0.E0));
#409=DIRECTION('',(0.E0,1.E0,0.E0));
#410=DIRECTION('',(0.E0,0.E0,-1.E0));
#411=AXIS2_PLACEMENT_3D('',#408,#409,#410);
#412=CYLINDRICAL_SURFACE('',#411,4.6E0);
#413=ORIENTED_EDGE('',*,*,#398,.F.);
#415=ORIENTED_EDGE('',*,*,#414,.T.);
#416=ORIENTED_EDGE('',*,*,#401,.T.);
#417=ORIENTED_EDGE('',*,*,#384,.F.);
#418=EDGE_LOOP('',(#413,#415,#416,#417));
#419=FACE_OUTER_BOUND('',#418,.F.);
#421=CARTESIAN_POINT('',(0.E0,1.7E1,0.E0));
#422=DIRECTION('',(0.E0,1.E0,0.E0));
#423=DIRECTION('',(0.E0,0.E0,-1.E0));
#424=AXIS2_PLACEMENT_3D('',#421,#422,#423);
#425=PLANE('',#424);
#427=ORIENTED_EDGE('',*,*,#426,.F.);
#429=ORIENTED_EDGE('',*,*,#428,.T.);
#430=EDGE_LOOP('',(#427,#429));
#431=FACE_OUTER_BOUND('',#430,.F.);
#432=ORIENTED_EDGE('',*,*,#414,.F.);
#433=ORIENTED_EDGE('',*,*,#403,.T.);
#434=EDGE_LOOP('',(#432,#433));
#435=FACE_BOUND('',#434,.F.);
#437=CARTESIAN_POINT('',(0.E0,-9.5E-1,0.E0));
#438=DIRECTION('',(0.E0,1.E0,0.E0));
#439=DIRECTION('',(0.E0,0.E0,-1.E0));
#440=AXIS2_PLACEMENT_3D('',#437,#438,#439);
#441=CYLINDRICAL_SURFACE('',#440,1.85E1);
#443=ORIENTED_EDGE('',*,*,#442,.F.);
#445=ORIENTED_EDGE('',*,*,#444,.T.);
#446=ORIENTED_EDGE('',*,*,#426,.T.);
#448=ORIENTED_EDGE('',*,*,#447,.F.);
#449=EDGE_LOOP('',(#443,#445,#446,#448));
#450=FACE_OUTER_BOUND('',#449,.F.);
#452=CARTESIAN_POINT('',(-4.684524186556E-14,3.499999965041E-1,0.E0));
#453=DIRECTION('',(0.E0,1.E0,0.E0));
#454=DIRECTION('',(0.E0,0.E0,-1.E0));
#455=AXIS2_PLACEMENT_3D('',#452,#453,#454);
#456=CONICAL_SURFACE('',#455,1.814999999650E1,4.5E1);
#457=ORIENTED_EDGE('',*,*,#442,.T.);
#459=ORIENTED_EDGE('',*,*,#458,.T.);
#461=ORIENTED_EDGE('',*,*,#460,.F.);
#463=ORIENTED_EDGE('',*,*,#462,.F.);
#464=EDGE_LOOP('',(#457,#459,#461,#463));
#465=FACE_OUTER_BOUND('',#464,.F.);
#467=CARTESIAN_POINT('',(0.E0,3.499999965041E-1,0.E0));
#468=DIRECTION('',(0.E0,1.E0,0.E0));
#469=DIRECTION('',(0.E0,0.E0,-1.E0));
#470=AXIS2_PLACEMENT_3D('',#467,#468,#469);
#471=CONICAL_SURFACE('',#470,1.814999999650E1,4.5E1);
#473=ORIENTED_EDGE('',*,*,#472,.T.);
#474=ORIENTED_EDGE('',*,*,#462,.T.);
#476=ORIENTED_EDGE('',*,*,#475,.F.);
#477=ORIENTED_EDGE('',*,*,#458,.F.);
#478=EDGE_LOOP('',(#473,#474,#476,#477));
#479=FACE_OUTER_BOUND('',#478,.F.);
#481=CARTESIAN_POINT('',(0.E0,-9.5E-1,0.E0));
#482=DIRECTION('',(0.E0,1.E0,0.E0));
#483=DIRECTION('',(0.E0,0.E0,-1.E0));
#484=AXIS2_PLACEMENT_3D('',#481,#482,#483);
#485=CYLINDRICAL_SURFACE('',#484,1.85E1);
#486=ORIENTED_EDGE('',*,*,#472,.F.);
#487=ORIENTED_EDGE('',*,*,#447,.T.);
#488=ORIENTED_EDGE('',*,*,#428,.F.);
#489=ORIENTED_EDGE('',*,*,#444,.F.);
#490=EDGE_LOOP('',(#486,#487,#488,#489));
#491=FACE_OUTER_BOUND('',#490,.F.);
#493=CARTESIAN_POINT('',(0.E0,0.E0,0.E0));
#494=DIRECTION('',(0.E0,1.E0,0.E0));
#495=DIRECTION('',(0.E0,0.E0,-1.E0));
#496=AXIS2_PLACEMENT_3D('',#493,#494,#495);
#497=PLANE('',#496);
#498=ORIENTED_EDGE('',*,*,#460,.T.);
#499=ORIENTED_EDGE('',*,*,#475,.T.);
#500=EDGE_LOOP('',(#498,#499));
#501=FACE_OUTER_BOUND('',#500,.F.);
#503=ORIENTED_EDGE('',*,*,#502,.F.);
#505=ORIENTED_EDGE('',*,*,#504,.T.);
#506=EDGE_LOOP('',(#503,#505));
#507=FACE_BOUND('',#506,.F.);
#509=CARTESIAN_POINT('',(0.E0,1.275E0,0.E0));
#510=DIRECTION('',(0.E0,-1.E0,0.E0));
#511=DIRECTION('',(0.E0,0.E0,1.E0));
#512=AXIS2_PLACEMENT_3D('',#509,#510,#511);
#513=CONICAL_SURFACE('',#512,4.025E0,4.5E1);
#515=ORIENTED_EDGE('',*,*,#514,.T.);
#516=ORIENTED_EDGE('',*,*,#502,.T.);
#518=ORIENTED_EDGE('',*,*,#517,.F.);
#519=ORIENTED_EDGE('',*,*,#354,.F.);
#520=EDGE_LOOP('',(#515,#516,#518,#519));
#521=FACE_OUTER_BOUND('',#520,.F.);
#523=CARTESIAN_POINT('',(0.E0,1.275E0,0.E0));
#524=DIRECTION('',(0.E0,-1.E0,0.E0));
#525=DIRECTION('',(0.E0,0.E0,1.E0));
#526=AXIS2_PLACEMENT_3D('',#523,#524,#525);
#527=CONICAL_SURFACE('',#526,4.025E0,4.5E1);
#528=ORIENTED_EDGE('',*,*,#514,.F.);
#529=ORIENTED_EDGE('',*,*,#372,.T.);
#530=ORIENTED_EDGE('',*,*,#517,.T.);
#531=ORIENTED_EDGE('',*,*,#504,.F.);
#532=EDGE_LOOP('',(#528,#529,#530,#531));
#533=FACE_OUTER_BOUND('',#532,.F.);
#539=PLANE_ANGLE_MEASURE_WITH_UNIT(PLANE_ANGLE_MEASURE(1.745329251994E-2),#538);
#540=(CONVERSION_BASED_UNIT('DEGREE',#539)NAMED_UNIT(*)PLANE_ANGLE_UNIT());
#542=UNCERTAINTY_MEASURE_WITH_UNIT(LENGTH_MEASURE(1.5E-2),#537,
'distance_accuracy_value',
'Maximum model space distance between geometric entities at asserted connectivities');
#545=APPLICATION_CONTEXT('automotive_design');
#546=APPLICATION_PROTOCOL_DEFINITION('international standard',
'automotive_design',2001,#545);
#547=PRODUCT_DEFINITION_CONTEXT('part definition',#545,'design');
#548=PRODUCT_CONTEXT('',#545,'mechanical');
#549=PRODUCT('PLOT_PLASTIK_FULMEN','PLOT_PLASTIK_FULMEN','NOT SPECIFIED',
(#548));
#550=PRODUCT_DEFINITION_FORMATION('1','LAST_VERSION',#549);
#558=DERIVED_UNIT_ELEMENT(#557,2.E0);
#559=DERIVED_UNIT((#558));
#560=MEASURE_REPRESENTATION_ITEM('surface area measure',AREA_MEASURE(
4.399417110305E3),#559);
#565=DERIVED_UNIT_ELEMENT(#564,3.E0);
#566=DERIVED_UNIT((#565));
#567=MEASURE_REPRESENTATION_ITEM('volume measure',VOLUME_MEASURE(
1.785845542576E4),#566);
#571=CARTESIAN_POINT('centre point',(0.E0,8.590173069623E0,0.E0));
#576=DERIVED_UNIT_ELEMENT(#575,2.E0);
#577=DERIVED_UNIT((#576));
#578=MEASURE_REPRESENTATION_ITEM('surface area measure',AREA_MEASURE(
4.399417110305E3),#577);
#583=DERIVED_UNIT_ELEMENT(#582,3.E0);
#584=DERIVED_UNIT((#583));
#585=MEASURE_REPRESENTATION_ITEM('volume measure',VOLUME_MEASURE(
1.785845542576E4),#584);
#589=CARTESIAN_POINT('centre point',(0.E0,8.590173069623E0,0.E0));
#594=PRODUCT_RELATED_PRODUCT_CATEGORY('part','',(#549));
#1=DRAUGHTING_PRE_DEFINED_COLOUR('black');
#2=COLOUR_RGB('',0.E0,2.31E-1,5.02E-1);
#3=COLOUR_RGB('',4.3E-2,2.E-2,3.5E-2);
#4=COLOUR_RGB('',4.3E-2,3.5E-2,5.9E-2);
#5=COLOUR_RGB('',4.3E-2,3.5E-2,8.6E-2);
#6=COLOUR_RGB('',5.9E-2,2.7E-2,2.7E-2);
#7=COLOUR_RGB('',5.9E-2,7.1E-2,1.49E-1);
#8=COLOUR_RGB('',5.9E-2,1.37E-1,1.88E-1);
#9=COLOUR_RGB('',6.3E-2,6.3E-2,6.3E-2);
#10=COLOUR_RGB('',7.1E-2,6.3E-2,5.9E-2);
#11=COLOUR_RGB('',7.8E-2,4.7E-2,1.49E-1);
#12=COLOUR_RGB('',7.8E-2,5.9E-2,2.71E-1);
#13=COLOUR_RGB('',7.8E-2,9.E-2,7.5E-2);
#14=COLOUR_RGB('',7.8E-2,9.E-2,1.1E-1);
#15=COLOUR_RGB('',9.4E-2,9.8E-2,1.14E-1);
#16=COLOUR_RGB('',9.4E-2,9.8E-2,3.25E-1);
#17=COLOUR_RGB('',9.4E-2,2.12E-1,1.8E-1);
#18=COLOUR_RGB('',9.4E-2,2.31E-1,1.69E-1);
#19=COLOUR_RGB('',9.8E-2,5.5E-2,1.76E-1);
#20=COLOUR_RGB('',9.8E-2,6.7E-2,5.5E-2);
#21=COLOUR_RGB('',9.8E-2,1.25E-1,3.84E-1);
#22=COLOUR_RGB('',1.06E-1,5.5E-2,4.7E-2);
#23=COLOUR_RGB('',1.06E-1,7.8E-2,1.18E-1);
#24=COLOUR_RGB('',1.18E-1,7.8E-2,1.84E-1);
#25=COLOUR_RGB('',1.18E-1,1.22E-1,2.43E-1);
#26=COLOUR_RGB('',1.22E-1,7.8E-2,9.4E-2);
#27=COLOUR_RGB('',1.37E-1,5.5E-2,6.7E-2);
#28=COLOUR_RGB('',1.37E-1,6.3E-2,4.7E-2);
#29=COLOUR_RGB('',1.37E-1,1.14E-1,7.8E-2);
#30=COLOUR_RGB('',1.45E-1,1.33E-1,2.71E-1);
#31=COLOUR_RGB('',1.45E-1,1.45E-1,1.22E-1);
#32=COLOUR_RGB('',1.45E-1,1.65E-1,3.02E-1);
#33=COLOUR_RGB('',1.53E-1,1.61E-1,3.65E-1);
#34=COLOUR_RGB('',1.53E-1,2.08E-1,7.8E-2);
#35=COLOUR_RGB('',1.61E-1,8.6E-2,7.1E-2);
#36=COLOUR_RGB('',1.61E-1,1.69E-1,1.49E-1);
#37=COLOUR_RGB('',1.65E-1,9.4E-2,1.1E-1);
#38=COLOUR_RGB('',1.65E-1,1.02E-1,1.18E-1);
#39=COLOUR_RGB('',1.69E-1,3.5E-2,3.5E-2);
#40=COLOUR_RGB('',1.76E-1,6.7E-2,4.7E-2);
#41=COLOUR_RGB('',1.76E-1,8.6E-2,1.02E-1);
#42=COLOUR_RGB('',1.76E-1,2.39E-1,3.57E-1);
#43=COLOUR_RGB('',1.8E-1,1.1E-1,1.1E-1);
#44=COLOUR_RGB('',1.8E-1,2.67E-1,1.14E-1);
#45=COLOUR_RGB('',1.8E-1,3.22E-1,2.31E-1);
#46=COLOUR_RGB('',1.84E-1,9.4E-2,7.1E-2);
#47=COLOUR_RGB('',2.E-1,1.1E-1,1.41E-1);
#48=COLOUR_RGB('',2.E-1,3.88E-1,2.67E-1);
#49=COLOUR_RGB('',2.16E-1,6.3E-2,4.3E-2);
#50=COLOUR_RGB('',2.2E-1,4.7E-2,4.7E-2);
#51=COLOUR_RGB('',2.2E-1,1.22E-1,1.22E-1);
#52=COLOUR_RGB('',2.2E-1,2.2E-1,3.76E-1);
#53=COLOUR_RGB('',2.2E-1,2.63E-1,6.12E-1);
#54=COLOUR_RGB('',2.24E-1,1.37E-1,1.41E-1);
#55=COLOUR_RGB('',2.24E-1,1.53E-1,9.E-2);
#56=COLOUR_RGB('',2.27E-1,2.86E-1,2.39E-1);
#57=COLOUR_RGB('',2.35E-1,2.7E-2,7.8E-2);
#58=COLOUR_RGB('',2.47E-1,2.86E-1,1.49E-1);
#59=COLOUR_RGB('',2.55E-1,1.41E-1,1.22E-1);
#60=COLOUR_RGB('',2.55E-1,1.53E-1,1.92E-1);
#61=COLOUR_RGB('',2.55E-1,1.73E-1,2.04E-1);
#62=COLOUR_RGB('',2.59E-1,3.61E-1,4.67E-1);
#63=COLOUR_RGB('',2.71E-1,1.88E-1,1.73E-1);
#64=COLOUR_RGB('',2.75E-1,7.8E-2,6.7E-2);
#65=COLOUR_RGB('',2.75E-1,2.94E-1,1.29E-1);
#66=COLOUR_RGB('',2.75E-1,3.92E-1,1.49E-1);
#67=COLOUR_RGB('',2.78E-1,3.22E-1,6.59E-1);
#68=COLOUR_RGB('',2.86E-1,1.92E-1,2.27E-1);
#69=COLOUR_RGB('',2.98E-1,3.73E-1,3.88E-1);
#70=COLOUR_RGB('',3.02E-1,2.47E-1,4.31E-1);
#71=COLOUR_RGB('',3.02E-1,4.12E-1,6.E-1);
#72=COLOUR_RGB('',3.1E-1,5.5E-2,4.3E-2);
#73=COLOUR_RGB('',3.14E-1,2.16E-1,2.16E-1);
#74=COLOUR_RGB('',3.18E-1,2.43E-1,2.75E-1);
#75=COLOUR_RGB('',3.22E-1,5.9E-2,6.3E-2);
#76=COLOUR_RGB('',3.29E-1,5.14E-1,1.84E-1);
#77=COLOUR_RGB('',3.33E-1,2.E-2,6.7E-2);
#78=COLOUR_RGB('',3.49E-1,4.3E-2,4.3E-2);
#79=COLOUR_RGB('',3.57E-1,1.22E-1,6.3E-2);
#80=COLOUR_RGB('',3.61E-1,6.3E-2,5.5E-2);
#81=COLOUR_RGB('',3.61E-1,2.63E-1,2.63E-1);
#82=COLOUR_RGB('',3.65E-1,1.45E-1,8.2E-2);
#83=COLOUR_RGB('',3.65E-1,2.35E-1,2.27E-1);
#84=COLOUR_RGB('',3.69E-1,5.06E-1,3.1E-1);
#85=COLOUR_RGB('',3.84E-1,1.8E-1,1.45E-1);
#86=COLOUR_RGB('',3.84E-1,2.2E-1,1.25E-1);
#87=COLOUR_RGB('',3.84E-1,2.27E-1,2.08E-1);
#88=COLOUR_RGB('',4.E-1,1.41E-1,1.1E-1);
#89=COLOUR_RGB('',4.E-1,1.49E-1,1.06E-1);
#90=COLOUR_RGB('',4.08E-1,2.9E-1,2.51E-1);
#91=COLOUR_RGB('',4.08E-1,2.98E-1,2.27E-1);
#92=COLOUR_RGB('',4.2E-1,1.41E-1,7.5E-2);
#93=COLOUR_RGB('',4.31E-1,4.31E-1,5.96E-1);
#94=COLOUR_RGB('',4.39E-1,3.25E-1,3.06E-1);
#95=COLOUR_RGB('',4.39E-1,3.49E-1,3.22E-1);
#96=COLOUR_RGB('',4.47E-1,4.3E-2,3.9E-2);
#97=COLOUR_RGB('',4.47E-1,3.33E-1,3.45E-1);
#98=COLOUR_RGB('',4.51E-1,3.65E-1,4.E-1);
#99=COLOUR_RGB('',4.51E-1,5.22E-1,5.69E-1);
#100=COLOUR_RGB('',4.55E-1,2.43E-1,1.22E-1);
#101=COLOUR_RGB('',4.55E-1,3.18E-1,2.55E-1);
#102=COLOUR_RGB('',4.86E-1,2.4E-2,1.2E-2);
#103=COLOUR_RGB('',4.98E-1,1.29E-1,9.8E-2);
#104=COLOUR_RGB('',4.98E-1,2.24E-1,4.51E-1);
#105=COLOUR_RGB('',5.02E-1,5.33E-1,3.73E-1);
#106=COLOUR_RGB('',5.02E-1,5.96E-1,6.43E-1);
#107=COLOUR_RGB('',5.18E-1,1.22E-1,3.14E-1);
#108=COLOUR_RGB('',5.18E-1,4.2E-1,4.27E-1);
#109=COLOUR_RGB('',5.25E-1,2.E-1,3.45E-1);
#110=COLOUR_RGB('',5.25E-1,4.E-1,3.1E-1);
#111=COLOUR_RGB('',5.25E-1,4.24E-1,4.55E-1);
#112=COLOUR_RGB('',5.29E-1,4.47E-1,4.98E-1);
#113=COLOUR_RGB('',5.29E-1,6.75E-1,7.1E-1);
#114=COLOUR_RGB('',5.33E-1,6.3E-2,6.3E-2);
#115=COLOUR_RGB('',5.33E-1,4.2E-1,4.E-1);
#116=COLOUR_RGB('',5.49E-1,8.2E-2,1.25E-1);
#117=COLOUR_RGB('',5.53E-1,2.16E-1,7.5E-2);
#118=COLOUR_RGB('',5.73E-1,4.39E-1,4.55E-1);
#119=COLOUR_RGB('',5.92E-1,4.78E-1,5.1E-1);
#120=COLOUR_RGB('',5.96E-1,7.1E-2,2.47E-1);
#121=COLOUR_RGB('',5.96E-1,1.8E-1,8.6E-2);
#122=COLOUR_RGB('',5.96E-1,3.69E-1,4.47E-1);
#123=COLOUR_RGB('',6.12E-1,4.82E-1,2.86E-1);
#124=COLOUR_RGB('',6.12E-1,5.14E-1,5.84E-1);
#125=COLOUR_RGB('',6.24E-1,3.88E-1,2.2E-1);
#126=COLOUR_RGB('',6.31E-1,8.2E-2,7.5E-2);
#127=COLOUR_RGB('',6.35E-1,8.2E-2,5.9E-2);
#128=COLOUR_RGB('',6.35E-1,4.51E-1,3.73E-1);
#129=COLOUR_RGB('',6.51E-1,5.06E-1,1.37E-1);
#130=COLOUR_RGB('',6.59E-1,7.1E-2,5.9E-2);
#131=COLOUR_RGB('',6.67E-1,6.7E-2,9.E-2);
#132=COLOUR_RGB('',6.67E-1,7.5E-2,7.5E-2);
#133=COLOUR_RGB('',6.94E-1,8.2E-2,7.1E-2);
#134=COLOUR_RGB('',7.1E-1,6.39E-1,6.27E-1);
#135=COLOUR_RGB('',7.22E-1,5.29E-1,2.31E-1);
#136=COLOUR_RGB('',7.29E-1,6.27E-1,6.E-1);
#137=COLOUR_RGB('',7.33E-1,6.59E-1,5.88E-1);
#138=COLOUR_RGB('',7.41E-1,5.9E-2,1.02E-1);
#139=COLOUR_RGB('',7.45E-1,1.22E-1,6.3E-2);
#140=COLOUR_RGB('',7.49E-1,9.E-2,4.51E-1);
#141=COLOUR_RGB('',7.53E-1,5.57E-1,9.8E-2);
#142=COLOUR_RGB('',7.57E-1,8.86E-1,6.78E-1);
#143=COLOUR_RGB('',7.8E-1,3.69E-1,3.18E-1);
#144=COLOUR_RGB('',7.92E-1,6.51E-1,4.2E-1);
#145=COLOUR_RGB('',8.E-1,6.27E-1,3.37E-1);
#146=COLOUR_RGB('',8.12E-1,7.41E-1,5.1E-1);
#147=COLOUR_RGB('',8.2E-1,5.9E-2,5.5E-2);
#148=COLOUR_RGB('',8.31E-1,6.86E-1,1.96E-1);
#149=COLOUR_RGB('',8.31E-1,8.51E-1,8.59E-1);
#150=COLOUR_RGB('',8.43E-1,9.8E-2,6.3E-2);
#151=COLOUR_RGB('',8.43E-1,7.76E-1,8.24E-1);
#152=COLOUR_RGB('',8.43E-1,8.31E-1,8.16E-1);
#153=COLOUR_RGB('',8.47E-1,2.2E-1,1.1E-1);
#154=COLOUR_RGB('',8.51E-1,1.57E-1,1.96E-1);
#155=COLOUR_RGB('',8.59E-1,2.04E-1,3.84E-1);
#156=COLOUR_RGB('',8.59E-1,2.39E-1,2.04E-1);
#157=COLOUR_RGB('',8.63E-1,5.45E-1,1.06E-1);
#158=COLOUR_RGB('',8.63E-1,6.55E-1,1.22E-1);
#159=COLOUR_RGB('',8.78E-1,1.33E-1,1.69E-1);
#160=COLOUR_RGB('',8.78E-1,2.31E-1,1.76E-1);
#161=COLOUR_RGB('',8.78E-1,3.69E-1,1.22E-1);
#162=COLOUR_RGB('',8.94E-1,2.9E-1,3.14E-1);
#163=COLOUR_RGB('',9.02E-1,5.02E-1,9.4E-2);
#164=COLOUR_RGB('',9.02E-1,9.02E-1,9.02E-1);
#165=COLOUR_RGB('',9.18E-1,8.35E-1,5.65E-1);
#166=COLOUR_RGB('',9.22E-1,1.76E-1,7.1E-2);
#167=COLOUR_RGB('',9.22E-1,3.06E-1,1.14E-1);
#168=COLOUR_RGB('',9.22E-1,5.33E-1,5.96E-1);
#169=COLOUR_RGB('',9.22E-1,1.E0,3.92E-1);
#170=COLOUR_RGB('',9.41E-1,9.29E-1,9.18E-1);
#171=COLOUR_RGB('',9.65E-1,6.82E-1,1.41E-1);
#172=COLOUR_RGB('',9.69E-1,9.53E-1,8.24E-1);
#173=COLOUR_RGB('',9.8E-1,5.84E-1,2.59E-1);
#174=COLOUR_RGB('',9.8E-1,9.8E-1,9.8E-1);
#175=COLOUR_RGB('',1.E0,9.8E-2,6.3E-2);
#176=COLOUR_RGB('',1.E0,1.88E-1,6.7E-2);
#177=COLOUR_RGB('',1.E0,2.35E-1,5.9E-2);
#178=COLOUR_RGB('',1.E0,2.78E-1,9.4E-2);
#179=COLOUR_RGB('',1.E0,3.53E-1,1.33E-1);
#180=COLOUR_RGB('',1.E0,5.25E-1,5.9E-2);
#181=COLOUR_RGB('',1.E0,5.84E-1,1.37E-1);
#182=COLOUR_RGB('',1.E0,7.1E-1,1.29E-1);
#183=COLOUR_RGB('',1.E0,7.14E-1,2.71E-1);
#184=COLOUR_RGB('',1.E0,7.61E-1,1.8E-1);
#185=COLOUR_RGB('',1.E0,7.69E-1,2.08E-1);
#186=COLOUR_RGB('',1.E0,8.63E-1,1.76E-1);
#187=COLOUR_RGB('',1.E0,9.14E-1,1.65E-1);
#188=COLOUR_RGB('',1.E0,9.73E-1,7.88E-1);
#189=COLOUR_RGB('',1.E0,9.76E-1,1.E0);
#190=COLOUR_RGB('',1.E0,1.E0,2.63E-1);
#191=COLOUR_RGB('',1.E0,1.E0,3.1E-1);
#192=COLOUR_RGB('',1.E0,1.E0,9.41E-1);
#193=COLOUR_RGB('',1.E0,1.E0,9.65E-1);
#194=DRAUGHTING_PRE_DEFINED_COLOUR('white');
#199=CIRCLE('',#198,2.75E0);
#208=CIRCLE('',#207,2.75E0);
#217=CIRCLE('',#216,4.6E0);
#222=CIRCLE('',#221,4.6E0);
#227=CIRCLE('',#226,4.6E0);
#236=CIRCLE('',#235,4.6E0);
#245=CIRCLE('',#244,1.85E1);
#250=CIRCLE('',#249,1.85E1);
#255=CIRCLE('',#254,1.85E1);
#268=CIRCLE('',#267,1.85E1);
#281=CIRCLE('',#280,5.3E0);
#286=CIRCLE('',#285,5.3E0);
#291=CIRCLE('',#290,1.78E1);
#296=CIRCLE('',#295,1.78E1);
#301=CIRCLE('',#300,2.75E0);
#310=CIRCLE('',#309,2.75E0);
#352=EDGE_CURVE('',#317,#318,#203,.T.);
#354=EDGE_CURVE('',#318,#328,#301,.T.);
#356=EDGE_CURVE('',#327,#328,#212,.T.);
#358=EDGE_CURVE('',#317,#327,#199,.T.);
#362=ADVANCED_FACE('',(#361),#351,.F.);
#369=EDGE_CURVE('',#317,#327,#208,.T.);
#372=EDGE_CURVE('',#318,#328,#310,.T.);
#376=ADVANCED_FACE('',(#375),#367,.F.);
#382=EDGE_CURVE('',#324,#334,#217,.T.);
#384=EDGE_CURVE('',#324,#334,#222,.T.);
#392=ADVANCED_FACE('',(#387,#391),#381,.T.);
#398=EDGE_CURVE('',#323,#324,#231,.T.);
#401=EDGE_CURVE('',#333,#334,#240,.T.);
#403=EDGE_CURVE('',#323,#333,#227,.T.);
#407=ADVANCED_FACE('',(#406),#397,.T.);
#414=EDGE_CURVE('',#323,#333,#236,.T.);
#420=ADVANCED_FACE('',(#419),#412,.T.);
#426=EDGE_CURVE('',#337,#338,#245,.T.);
#428=EDGE_CURVE('',#337,#338,#250,.T.);
#436=ADVANCED_FACE('',(#431,#435),#425,.T.);
#442=EDGE_CURVE('',#341,#342,#255,.T.);
#444=EDGE_CURVE('',#341,#337,#276,.T.);
#447=EDGE_CURVE('',#342,#338,#272,.T.);
#451=ADVANCED_FACE('',(#450),#441,.T.);
#458=EDGE_CURVE('',#342,#346,#263,.T.);
#460=EDGE_CURVE('',#345,#346,#291,.T.);
#462=EDGE_CURVE('',#341,#345,#259,.T.);
#466=ADVANCED_FACE('',(#465),#456,.T.);
#472=EDGE_CURVE('',#342,#341,#268,.T.);
#475=EDGE_CURVE('',#346,#345,#296,.T.);
#480=ADVANCED_FACE('',(#479),#471,.T.);
#492=ADVANCED_FACE('',(#491),#485,.T.);
#502=EDGE_CURVE('',#320,#330,#281,.T.);
#504=EDGE_CURVE('',#320,#330,#286,.T.);
#508=ADVANCED_FACE('',(#501,#507),#497,.F.);
#514=EDGE_CURVE('',#318,#320,#305,.T.);
#517=EDGE_CURVE('',#328,#330,#314,.T.);
#522=ADVANCED_FACE('',(#521),#513,.F.);
#534=ADVANCED_FACE('',(#533),#527,.F.);
#535=CLOSED_SHELL('',(#362,#376,#392,#407,#420,#436,#451,#466,#480,#492,#508,
#522,#534));
#536=MANIFOLD_SOLID_BREP('',#535);
#537=(LENGTH_UNIT()NAMED_UNIT(*)SI_UNIT(.MILLI.,.METRE.));
#538=(NAMED_UNIT(*)PLANE_ANGLE_UNIT()SI_UNIT($,.RADIAN.));
#541=(NAMED_UNIT(*)SI_UNIT($,.STERADIAN.)SOLID_ANGLE_UNIT());
#543=(GEOMETRIC_REPRESENTATION_CONTEXT(3)GLOBAL_UNCERTAINTY_ASSIGNED_CONTEXT((
#542))GLOBAL_UNIT_ASSIGNED_CONTEXT((#537,#540,#541))REPRESENTATION_CONTEXT
('ID1','3'));
#544=ADVANCED_BREP_SHAPE_REPRESENTATION('',(#536),#543);
#551=PRODUCT_DEFINITION('part definition','',#550,#547);
#552=PRODUCT_DEFINITION_SHAPE('','SHAPE FOR PLOT_PLASTIK_FULMEN.',#551);
#553=SHAPE_ASPECT('','solid data associated with PLOT_PLASTIK_FULMEN',#552,.F.);
#554=PROPERTY_DEFINITION('',
'shape for solid data with which properties are associated',#553);
#555=SHAPE_REPRESENTATION('',(#536),#543);
#556=SHAPE_DEFINITION_REPRESENTATION(#554,#555);
#557=(LENGTH_UNIT()NAMED_UNIT(*)SI_UNIT(.MILLI.,.METRE.));
#561=PROPERTY_DEFINITION('geometric validation property',
'area of PLOT_PLASTIK_FULMEN',#553);
#562=REPRESENTATION('surface area',(#560),#543);
#563=PROPERTY_DEFINITION_REPRESENTATION(#561,#562);
#564=(LENGTH_UNIT()NAMED_UNIT(*)SI_UNIT(.MILLI.,.METRE.));
#568=PROPERTY_DEFINITION('geometric validation property',
'volume of PLOT_PLASTIK_FULMEN',#553);
#569=REPRESENTATION('volume',(#567),#543);
#570=PROPERTY_DEFINITION_REPRESENTATION(#568,#569);
#572=PROPERTY_DEFINITION('geometric validation property',
'centroid of PLOT_PLASTIK_FULMEN',#553);
#573=REPRESENTATION('centroid',(#571),#543);
#574=PROPERTY_DEFINITION_REPRESENTATION(#572,#573);
#575=(LENGTH_UNIT()NAMED_UNIT(*)SI_UNIT(.MILLI.,.METRE.));
#579=PROPERTY_DEFINITION('geometric validation property',
'area of PLOT_PLASTIK_FULMEN',#552);
#580=REPRESENTATION('surface area',(#578),#543);
#581=PROPERTY_DEFINITION_REPRESENTATION(#579,#580);
#582=(LENGTH_UNIT()NAMED_UNIT(*)SI_UNIT(.MILLI.,.METRE.));
#586=PROPERTY_DEFINITION('geometric validation property',
'volume of PLOT_PLASTIK_FULMEN',#552);
#587=REPRESENTATION('volume',(#585),#543);
#588=PROPERTY_DEFINITION_REPRESENTATION(#586,#587);
#590=PROPERTY_DEFINITION('geometric validation property',
'centroid of PLOT_PLASTIK_FULMEN',#552);
#591=REPRESENTATION('centroid',(#589),#543);
#592=PROPERTY_DEFINITION_REPRESENTATION(#590,#591);
#593=SHAPE_DEFINITION_REPRESENTATION(#552,#544);
ENDSEC;
END-ISO-10303-21;
