ISO-10303-21;
HEADER;
FILE_DESCRIPTION( ( 'STEP AP203' ), '1' );
FILE_NAME( ' ', '  ', ( '  ' ), ( '  ' ), 'PSStep 10.1', '  ', '  ' );
FILE_SCHEMA( ( 'CONFIG_CONTROL_DESIGN' ) );
ENDSEC;
DATA;
#1 = DESIGN_CONTEXT( '', #27, 'design' );
#2 = APPLICATION_PROTOCOL_DEFINITION( 'INTERNATIONAL STANDARD', 'config_control_design', 1994, #27 );
#3 = PRODUCT_CATEGORY_RELATIONSHIP( 'NONE', 'NONE', #28, #29 );
#4 = DATE_AND_TIME( #30, #31 );
#5 = DATE_TIME_ROLE( 'creation_date' );
#6 = DATE_TIME_ROLE( 'classification_date' );
#7 = PERSON_AND_ORGANIZATION_ROLE( 'creator' );
#8 = PERSON_AND_ORGANIZATION_ROLE( 'design_supplier' );
#9 = PERSON_AND_ORGANIZATION_ROLE( 'classification_officer' );
#10 = PERSON_AND_ORGANIZATION_ROLE( 'design_owner' );
#11 = APPROVAL_PERSON_ORGANIZATION( #32, #33, #34 );
#12 = APPROVAL_DATE_TIME( #4, #33 );
#13 = CC_DESIGN_APPROVAL( #33, ( #35, #36, #37 ) );
#14 = CC_DESIGN_DATE_AND_TIME_ASSIGNMENT( #4, #5, ( #37 ) );
#15 = CC_DESIGN_DATE_AND_TIME_ASSIGNMENT( #4, #6, ( #35 ) );
#16 = CC_DESIGN_PERSON_AND_ORGANIZATION_ASSIGNMENT( #32, #10, ( #38 ) );
#17 = CC_DESIGN_PERSON_AND_ORGANIZATION_ASSIGNMENT( #32, #7, ( #37 ) );
#18 = CC_DESIGN_PERSON_AND_ORGANIZATION_ASSIGNMENT( #32, #7, ( #36 ) );
#19 = CC_DESIGN_PERSON_AND_ORGANIZATION_ASSIGNMENT( #32, #8, ( #36 ) );
#20 = CC_DESIGN_SECURITY_CLASSIFICATION( #35, ( #36 ) );
#21 = CC_DESIGN_PERSON_AND_ORGANIZATION_ASSIGNMENT( #32, #9, ( #35 ) );
#22 = SHAPE_DEFINITION_REPRESENTATION( #39, #40 );
#23 =  ( GEOMETRIC_REPRESENTATION_CONTEXT( 3 )GLOBAL_UNCERTAINTY_ASSIGNED_CONTEXT( ( #43 ) )GLOBAL_UNIT_ASSIGNED_CONTEXT( ( #45, #46, #47 ) )REPRESENTATION_CONTEXT( 'NONE', 'WORKSPACE' ) );
#27 = APPLICATION_CONTEXT( 'CONFIGURATION CONTROLLED 3D DESIGNS OF MECHANICAL PARTS AND ASSEMBLIES' );
#28 = PRODUCT_CATEGORY( 'part', 'NONE' );
#29 = PRODUCT_RELATED_PRODUCT_CATEGORY( 'detail', ' ', ( #38 ) );
#30 = CALENDAR_DATE( 2023, 12, 6 );
#31 = LOCAL_TIME( 9, 22, 26.0000000000000, #49 );
#32 = PERSON_AND_ORGANIZATION( #50, #51 );
#33 = APPROVAL( #52, 'SOLID MODEL' );
#34 = APPROVAL_ROLE( 'APPROVED' );
#35 = SECURITY_CLASSIFICATION( '', '', #53 );
#36 = PRODUCT_DEFINITION_FORMATION_WITH_SPECIFIED_SOURCE( ' ', 'NONE', #38, .NOT_KNOWN. );
#37 = PRODUCT_DEFINITION( 'NONE', 'NONE', #36, #1 );
#38 = PRODUCT( '1', '1', 'PART-1-DESC', ( #54 ) );
#39 = PRODUCT_DEFINITION_SHAPE( 'NONE', 'NONE', #37 );
#40 = ADVANCED_BREP_SHAPE_REPRESENTATION( '1', ( #55, #56 ), #23 );
#43 = UNCERTAINTY_MEASURE_WITH_UNIT( LENGTH_MEASURE( 0.00100000000000000 ), #45, '', '' );
#45 =  ( CONVERSION_BASED_UNIT( 'MILLIMETRE', #59 )LENGTH_UNIT(  )NAMED_UNIT( #62 ) );
#46 =  ( NAMED_UNIT( #64 )PLANE_ANGLE_UNIT(  )SI_UNIT( $, .RADIAN. ) );
#47 =  ( NAMED_UNIT( #64 )SI_UNIT( $, .STERADIAN. )SOLID_ANGLE_UNIT(  ) );
#49 = COORDINATED_UNIVERSAL_TIME_OFFSET( 1, 0, .AHEAD. );
#50 = PERSON( '', 'UNSPECIFIED', $, $, $, $ );
#51 = ORGANIZATION( 'UNSPECIFIED', 'UNSPECIFIED', 'UNSPECIFIED' );
#52 = APPROVAL_STATUS( 'approved' );
#53 = SECURITY_CLASSIFICATION_LEVEL( 'unclassified' );
#54 = MECHANICAL_CONTEXT( '', #27, 'mechanical' );
#55 = MANIFOLD_SOLID_BREP( '1', #70 );
#56 = AXIS2_PLACEMENT_3D( '', #71, #72, #73 );
#59 = LENGTH_MEASURE_WITH_UNIT( LENGTH_MEASURE( 1.00000000000000 ), #74 );
#62 = DIMENSIONAL_EXPONENTS( 1.00000000000000, 0.000000000000000, 0.000000000000000, 0.000000000000000, 0.000000000000000, 0.000000000000000, 0.000000000000000 );
#64 = DIMENSIONAL_EXPONENTS( 0.000000000000000, 0.000000000000000, 0.000000000000000, 0.000000000000000, 0.000000000000000, 0.000000000000000, 0.000000000000000 );
#70 = CLOSED_SHELL( '', ( #75, #76, #77, #78, #79, #80, #81, #82, #83, #84, #85, #86, #87 ) );
#71 = CARTESIAN_POINT( '', ( 0.000000000000000, 0.000000000000000, 0.000000000000000 ) );
#72 = DIRECTION( '', ( 0.000000000000000, 0.000000000000000, 1.00000000000000 ) );
#73 = DIRECTION( '', ( 1.00000000000000, 0.000000000000000, 0.000000000000000 ) );
#74 =  ( LENGTH_UNIT(  )NAMED_UNIT( #62 )SI_UNIT( .MILLI., .METRE. ) );
#75 = ADVANCED_FACE( '', ( #89 ), #90, .T. );
#76 = ADVANCED_FACE( '', ( #91 ), #92, .T. );
#77 = ADVANCED_FACE( '', ( #93 ), #94, .T. );
#78 = ADVANCED_FACE( '', ( #95, #96 ), #97, .T. );
#79 = ADVANCED_FACE( '', ( #98 ), #99, .F. );
#80 = ADVANCED_FACE( '', ( #100, #101 ), #102, .F. );
#81 = ADVANCED_FACE( '', ( #103, #104 ), #105, .T. );
#82 = ADVANCED_FACE( '', ( #106 ), #107, .F. );
#83 = ADVANCED_FACE( '', ( #108 ), #109, .F. );
#84 = ADVANCED_FACE( '', ( #110 ), #111, .T. );
#85 = ADVANCED_FACE( '', ( #112 ), #113, .T. );
#86 = ADVANCED_FACE( '', ( #114 ), #115, .T. );
#87 = ADVANCED_FACE( '', ( #116 ), #117, .F. );
#89 = FACE_OUTER_BOUND( '', #118, .T. );
#90 = TOROIDAL_SURFACE( '', #119, 84.8999999994000, 3.00000000000000 );
#91 = FACE_OUTER_BOUND( '', #120, .T. );
#92 = PLANE( '', #121 );
#93 = FACE_OUTER_BOUND( '', #122, .T. );
#94 = PLANE( '', #123 );
#95 = FACE_OUTER_BOUND( '', #124, .T. );
#96 = FACE_BOUND( '', #125, .T. );
#97 = PLANE( '', #126 );
#98 = FACE_OUTER_BOUND( '', #127, .T. );
#99 = CYLINDRICAL_SURFACE( '', #128, 81.8999999994000 );
#100 = FACE_OUTER_BOUND( '', #129, .T. );
#101 = FACE_BOUND( '', #130, .T. );
#102 = PLANE( '', #131 );
#103 = FACE_OUTER_BOUND( '', #132, .T. );
#104 = FACE_BOUND( '', #133, .T. );
#105 = PLANE( '', #134 );
#106 = FACE_OUTER_BOUND( '', #135, .T. );
#107 = CYLINDRICAL_SURFACE( '', #136, 77.2500000000000 );
#108 = FACE_OUTER_BOUND( '', #137, .T. );
#109 = CYLINDRICAL_SURFACE( '', #138, 77.2500000000000 );
#110 = FACE_OUTER_BOUND( '', #139, .T. );
#111 = TOROIDAL_SURFACE( '', #140, 84.8999999994000, 3.00000000000000 );
#112 = FACE_OUTER_BOUND( '', #141, .T. );
#113 = PLANE( '', #142 );
#114 = FACE_OUTER_BOUND( '', #143, .T. );
#115 = PLANE( '', #144 );
#116 = FACE_OUTER_BOUND( '', #145, .T. );
#117 = CYLINDRICAL_SURFACE( '', #146, 81.8999999994000 );
#118 = EDGE_LOOP( '', ( #147, #148, #149, #150 ) );
#119 = AXIS2_PLACEMENT_3D( '', #151, #152, #153 );
#120 = EDGE_LOOP( '', ( #154, #155, #156, #157 ) );
#121 = AXIS2_PLACEMENT_3D( '', #158, #159, #160 );
#122 = EDGE_LOOP( '', ( #161, #162, #163, #164 ) );
#123 = AXIS2_PLACEMENT_3D( '', #165, #166, #167 );
#124 = EDGE_LOOP( '', ( #168, #169, #170, #171 ) );
#125 = EDGE_LOOP( '', ( #172, #173 ) );
#126 = AXIS2_PLACEMENT_3D( '', #174, #175, #176 );
#127 = EDGE_LOOP( '', ( #177, #178, #179, #180 ) );
#128 = AXIS2_PLACEMENT_3D( '', #181, #182, #183 );
#129 = EDGE_LOOP( '', ( #184, #185 ) );
#130 = EDGE_LOOP( '', ( #186, #187 ) );
#131 = AXIS2_PLACEMENT_3D( '', #188, #189, #190 );
#132 = EDGE_LOOP( '', ( #191, #192, #193, #194 ) );
#133 = EDGE_LOOP( '', ( #195, #196 ) );
#134 = AXIS2_PLACEMENT_3D( '', #197, #198, #199 );
#135 = EDGE_LOOP( '', ( #200, #201, #202, #203 ) );
#136 = AXIS2_PLACEMENT_3D( '', #204, #205, #206 );
#137 = EDGE_LOOP( '', ( #207, #208, #209, #210 ) );
#138 = AXIS2_PLACEMENT_3D( '', #211, #212, #213 );
#139 = EDGE_LOOP( '', ( #214, #215, #216, #217 ) );
#140 = AXIS2_PLACEMENT_3D( '', #218, #219, #220 );
#141 = EDGE_LOOP( '', ( #221, #222, #223, #224 ) );
#142 = AXIS2_PLACEMENT_3D( '', #225, #226, #227 );
#143 = EDGE_LOOP( '', ( #228, #229, #230, #231 ) );
#144 = AXIS2_PLACEMENT_3D( '', #232, #233, #234 );
#145 = EDGE_LOOP( '', ( #235, #236, #237, #238 ) );
#146 = AXIS2_PLACEMENT_3D( '', #239, #240, #241 );
#147 = ORIENTED_EDGE( '', *, *, #242, .T. );
#148 = ORIENTED_EDGE( '', *, *, #243, .T. );
#149 = ORIENTED_EDGE( '', *, *, #244, .F. );
#150 = ORIENTED_EDGE( '', *, *, #245, .F. );
#151 = CARTESIAN_POINT( '', ( 20501.6170560000, 2.30926389122000E-013, 1999.10383184000 ) );
#152 = DIRECTION( '', ( 0.107860544993033, -4.62184189409617E-015, -0.994166033836303 ) );
#153 = DIRECTION( '', ( -4.28501626280000E-014, -1.00000000000000, 0.000000000000000 ) );
#154 = ORIENTED_EDGE( '', *, *, #246, .F. );
#155 = ORIENTED_EDGE( '', *, *, #247, .F. );
#156 = ORIENTED_EDGE( '', *, *, #248, .T. );
#157 = ORIENTED_EDGE( '', *, *, #249, .F. );
#158 = CARTESIAN_POINT( '', ( 20394.2724561000, -102.599999996000, 1984.44003671000 ) );
#159 = DIRECTION( '', ( 0.000000000000000, -1.00000000000000, 0.000000000000000 ) );
#160 = DIRECTION( '', ( 0.000000000000000, 0.000000000000000, -1.00000000000000 ) );
#161 = ORIENTED_EDGE( '', *, *, #250, .F. );
#162 = ORIENTED_EDGE( '', *, *, #251, .F. );
#163 = ORIENTED_EDGE( '', *, *, #246, .T. );
#164 = ORIENTED_EDGE( '', *, *, #252, .F. );
#165 = CARTESIAN_POINT( '', ( 20394.2724561000, 102.599999996000, 1984.44003671000 ) );
#166 = DIRECTION( '', ( -0.994166033836303, 0.000000000000000, -0.107860544993033 ) );
#167 = DIRECTION( '', ( -0.107860544993033, 0.000000000000000, 0.994166033836303 ) );
#168 = ORIENTED_EDGE( '', *, *, #253, .T. );
#169 = ORIENTED_EDGE( '', *, *, #247, .T. );
#170 = ORIENTED_EDGE( '', *, *, #251, .T. );
#171 = ORIENTED_EDGE( '', *, *, #254, .T. );
#172 = ORIENTED_EDGE( '', *, *, #243, .F. );
#173 = ORIENTED_EDGE( '', *, *, #255, .F. );
#174 = CARTESIAN_POINT( '', ( 24.4708030269000, 0.000000000000000, -225.550883241000 ) );
#175 = DIRECTION( '', ( 0.107860544993033, 0.000000000000000, -0.994166033836303 ) );
#176 = DIRECTION( '', ( 0.000000000000000, -1.00000000000000, 0.000000000000000 ) );
#177 = ORIENTED_EDGE( '', *, *, #256, .T. );
#178 = ORIENTED_EDGE( '', *, *, #257, .T. );
#179 = ORIENTED_EDGE( '', *, *, #245, .T. );
#180 = ORIENTED_EDGE( '', *, *, #258, .F. );
#181 = CARTESIAN_POINT( '', ( 20503.5386921000, 0.000000000000000, 1981.39183717000 ) );
#182 = DIRECTION( '', ( 0.107860544993033, -0.000000000000000, -0.994166033836303 ) );
#183 = DIRECTION( '', ( 0.000000000000000, -1.00000000000000, 0.000000000000000 ) );
#184 = ORIENTED_EDGE( '', *, *, #256, .F. );
#185 = ORIENTED_EDGE( '', *, *, #259, .F. );
#186 = ORIENTED_EDGE( '', *, *, #260, .T. );
#187 = ORIENTED_EDGE( '', *, *, #261, .T. );
#188 = CARTESIAN_POINT( '', ( 22.7666064160000, 0.000000000000000, -209.843059907000 ) );
#189 = DIRECTION( '', ( -0.107860544993033, 0.000000000000000, 0.994166033836303 ) );
#190 = DIRECTION( '', ( 0.000000000000000, 1.00000000000000, 0.000000000000000 ) );
#191 = ORIENTED_EDGE( '', *, *, #262, .T. );
#192 = ORIENTED_EDGE( '', *, *, #252, .T. );
#193 = ORIENTED_EDGE( '', *, *, #249, .T. );
#194 = ORIENTED_EDGE( '', *, *, #263, .T. );
#195 = ORIENTED_EDGE( '', *, *, #264, .F. );
#196 = ORIENTED_EDGE( '', *, *, #265, .F. );
#197 = CARTESIAN_POINT( '', ( 21.3644193311000, 0.000000000000000, -196.918901467000 ) );
#198 = DIRECTION( '', ( -0.107860544993033, 0.000000000000000, 0.994166033836303 ) );
#199 = DIRECTION( '', ( 0.000000000000000, 1.00000000000000, 0.000000000000000 ) );
#200 = ORIENTED_EDGE( '', *, *, #266, .F. );
#201 = ORIENTED_EDGE( '', *, *, #265, .T. );
#202 = ORIENTED_EDGE( '', *, *, #267, .T. );
#203 = ORIENTED_EDGE( '', *, *, #260, .F. );
#204 = CARTESIAN_POINT( '', ( 20499.5353474000, 0.000000000000000, 2018.29123629000 ) );
#205 = DIRECTION( '', ( 0.107860544993033, -0.000000000000000, -0.994166033836303 ) );
#206 = DIRECTION( '', ( 0.000000000000000, -1.00000000000000, 0.000000000000000 ) );
#207 = ORIENTED_EDGE( '', *, *, #267, .F. );
#208 = ORIENTED_EDGE( '', *, *, #264, .T. );
#209 = ORIENTED_EDGE( '', *, *, #266, .T. );
#210 = ORIENTED_EDGE( '', *, *, #261, .F. );
#211 = CARTESIAN_POINT( '', ( 20499.5353474000, 0.000000000000000, 2018.29123629000 ) );
#212 = DIRECTION( '', ( 0.107860544993033, -0.000000000000000, -0.994166033836303 ) );
#213 = DIRECTION( '', ( 0.000000000000000, -1.00000000000000, 0.000000000000000 ) );
#214 = ORIENTED_EDGE( '', *, *, #244, .T. );
#215 = ORIENTED_EDGE( '', *, *, #255, .T. );
#216 = ORIENTED_EDGE( '', *, *, #242, .F. );
#217 = ORIENTED_EDGE( '', *, *, #268, .F. );
#218 = CARTESIAN_POINT( '', ( 20501.6170560000, 2.55795384874000E-013, 1999.10383184000 ) );
#219 = DIRECTION( '', ( 0.107860544993033, 3.36569114886371E-015, -0.994166033836303 ) );
#220 = DIRECTION( '', ( 4.28501626280000E-014, 1.00000000000000, 8.03440549275000E-015 ) );
#221 = ORIENTED_EDGE( '', *, *, #269, .F. );
#222 = ORIENTED_EDGE( '', *, *, #254, .F. );
#223 = ORIENTED_EDGE( '', *, *, #250, .T. );
#224 = ORIENTED_EDGE( '', *, *, #262, .F. );
#225 = CARTESIAN_POINT( '', ( 20597.7782433000, 102.599999996000, 2006.51909027000 ) );
#226 = DIRECTION( '', ( 4.61410455545221E-027, 1.00000000000000, 2.23740992515425E-014 ) );
#227 = DIRECTION( '', ( 1.00000000000000, 0.000000000000000, -2.06225265365000E-013 ) );
#228 = ORIENTED_EDGE( '', *, *, #248, .F. );
#229 = ORIENTED_EDGE( '', *, *, #253, .F. );
#230 = ORIENTED_EDGE( '', *, *, #269, .T. );
#231 = ORIENTED_EDGE( '', *, *, #263, .F. );
#232 = CARTESIAN_POINT( '', ( 20597.7782433000, -102.599999996000, 2006.51909027000 ) );
#233 = DIRECTION( '', ( 0.994166033836303, 0.000000000000000, 0.107860544993033 ) );
#234 = DIRECTION( '', ( 0.000000000000000, -1.00000000000000, -0.000000000000000 ) );
#235 = ORIENTED_EDGE( '', *, *, #259, .T. );
#236 = ORIENTED_EDGE( '', *, *, #258, .T. );
#237 = ORIENTED_EDGE( '', *, *, #268, .T. );
#238 = ORIENTED_EDGE( '', *, *, #257, .F. );
#239 = CARTESIAN_POINT( '', ( 20503.5386921000, 0.000000000000000, 1981.39183717000 ) );
#240 = DIRECTION( '', ( 0.107860544993033, -0.000000000000000, -0.994166033836303 ) );
#241 = DIRECTION( '', ( 0.000000000000000, -1.00000000000000, 0.000000000000000 ) );
#242 = EDGE_CURVE( '', #270, #271, #272, .T. );
#243 = EDGE_CURVE( '', #271, #273, #274, .T. );
#244 = EDGE_CURVE( '', #275, #273, #276, .T. );
#245 = EDGE_CURVE( '', #270, #275, #277, .T. );
#246 = EDGE_CURVE( '', #278, #279, #280, .T. );
#247 = EDGE_CURVE( '', #281, #278, #282, .T. );
#248 = EDGE_CURVE( '', #281, #283, #284, .T. );
#249 = EDGE_CURVE( '', #279, #283, #285, .T. );
#250 = EDGE_CURVE( '', #286, #287, #288, .T. );
#251 = EDGE_CURVE( '', #278, #286, #289, .T. );
#252 = EDGE_CURVE( '', #287, #279, #290, .T. );
#253 = EDGE_CURVE( '', #291, #281, #292, .T. );
#254 = EDGE_CURVE( '', #286, #291, #293, .T. );
#255 = EDGE_CURVE( '', #273, #271, #294, .T. );
#256 = EDGE_CURVE( '', #295, #296, #297, .T. );
#257 = EDGE_CURVE( '', #296, #270, #298, .T. );
#258 = EDGE_CURVE( '', #295, #275, #299, .T. );
#259 = EDGE_CURVE( '', #296, #295, #300, .T. );
#260 = EDGE_CURVE( '', #301, #302, #303, .T. );
#261 = EDGE_CURVE( '', #302, #301, #304, .T. );
#262 = EDGE_CURVE( '', #305, #287, #306, .T. );
#263 = EDGE_CURVE( '', #283, #305, #307, .T. );
#264 = EDGE_CURVE( '', #308, #309, #310, .T. );
#265 = EDGE_CURVE( '', #309, #308, #311, .T. );
#266 = EDGE_CURVE( '', #309, #301, #312, .T. );
#267 = EDGE_CURVE( '', #308, #302, #313, .T. );
#268 = EDGE_CURVE( '', #275, #270, #314, .T. );
#269 = EDGE_CURVE( '', #291, #305, #315, .T. );
#270 = VERTEX_POINT( '', #316 );
#271 = VERTEX_POINT( '', #317 );
#272 = CIRCLE( '', #318, 3.00000000000000 );
#273 = VERTEX_POINT( '', #319 );
#274 = CIRCLE( '', #320, 84.8999999994000 );
#275 = VERTEX_POINT( '', #321 );
#276 = CIRCLE( '', #322, 3.00000000000000 );
#277 = CIRCLE( '', #323, 81.8999999994000 );
#278 = VERTEX_POINT( '', #324 );
#279 = VERTEX_POINT( '', #325 );
#280 = LINE( '', #326, #327 );
#281 = VERTEX_POINT( '', #328 );
#282 = LINE( '', #329, #330 );
#283 = VERTEX_POINT( '', #331 );
#284 = LINE( '', #332, #333 );
#285 = LINE( '', #334, #335 );
#286 = VERTEX_POINT( '', #336 );
#287 = VERTEX_POINT( '', #337 );
#288 = LINE( '', #338, #339 );
#289 = LINE( '', #340, #341 );
#290 = LINE( '', #342, #343 );
#291 = VERTEX_POINT( '', #344 );
#292 = LINE( '', #345, #346 );
#293 = LINE( '', #347, #348 );
#294 = CIRCLE( '', #349, 84.8999999994000 );
#295 = VERTEX_POINT( '', #350 );
#296 = VERTEX_POINT( '', #351 );
#297 = CIRCLE( '', #352, 81.8999999994000 );
#298 = LINE( '', #353, #354 );
#299 = LINE( '', #355, #356 );
#300 = CIRCLE( '', #357, 81.8999999994000 );
#301 = VERTEX_POINT( '', #358 );
#302 = VERTEX_POINT( '', #359 );
#303 = CIRCLE( '', #360, 77.2500000000000 );
#304 = CIRCLE( '', #361, 77.2500000000000 );
#305 = VERTEX_POINT( '', #362 );
#306 = LINE( '', #363, #364 );
#307 = LINE( '', #365, #366 );
#308 = VERTEX_POINT( '', #367 );
#309 = VERTEX_POINT( '', #368 );
#310 = CIRCLE( '', #369, 77.2500000000000 );
#311 = CIRCLE( '', #370, 77.2500000000000 );
#312 = LINE( '', #371, #372 );
#313 = LINE( '', #373, #374 );
#314 = CIRCLE( '', #375, 81.8999999994000 );
#315 = LINE( '', #376, #377 );
#316 = CARTESIAN_POINT( '', ( 20501.6170560000, -81.8999999994000, 1999.10383184000 ) );
#317 = CARTESIAN_POINT( '', ( 20501.9406376000, -84.8999999994000, 1996.12133373000 ) );
#318 = AXIS2_PLACEMENT_3D( '', #378, #379, #380 );
#319 = CARTESIAN_POINT( '', ( 20501.9406376000, 84.8999999994000, 1996.12133373000 ) );
#320 = AXIS2_PLACEMENT_3D( '', #381, #382, #383 );
#321 = CARTESIAN_POINT( '', ( 20501.6170560000, 81.8999999994000, 1999.10383184000 ) );
#322 = AXIS2_PLACEMENT_3D( '', #384, #385, #386 );
#323 = AXIS2_PLACEMENT_3D( '', #387, #388, #389 );
#324 = CARTESIAN_POINT( '', ( 20394.2724561000, -102.599999996000, 1984.44003671000 ) );
#325 = CARTESIAN_POINT( '', ( 20391.1660724000, -102.599999996000, 2013.07201849000 ) );
#326 = CARTESIAN_POINT( '', ( 20392.7192643000, -102.599999996000, 1998.75602760000 ) );
#327 = VECTOR( '', #390, 1000.00000000000 );
#328 = CARTESIAN_POINT( '', ( 20597.7782433000, -102.599999996000, 2006.51909027000 ) );
#329 = CARTESIAN_POINT( '', ( 20496.0253497000, -102.599999996000, 1995.47956349000 ) );
#330 = VECTOR( '', #391, 1000.00000000000 );
#331 = CARTESIAN_POINT( '', ( 20594.6718596000, -102.599999996000, 2035.15107205000 ) );
#332 = CARTESIAN_POINT( '', ( 20596.2250514000, -102.599999996000, 2020.83508116000 ) );
#333 = VECTOR( '', #392, 1000.00000000000 );
#334 = CARTESIAN_POINT( '', ( 20492.9189660000, -102.599999996000, 2024.11154527000 ) );
#335 = VECTOR( '', #393, 1000.00000000000 );
#336 = CARTESIAN_POINT( '', ( 20394.2724561000, 102.599999996000, 1984.44003671000 ) );
#337 = CARTESIAN_POINT( '', ( 20391.1660724000, 102.599999996000, 2013.07201849000 ) );
#338 = CARTESIAN_POINT( '', ( 20392.7192643000, 102.599999996000, 1998.75602760000 ) );
#339 = VECTOR( '', #394, 1000.00000000000 );
#340 = CARTESIAN_POINT( '', ( 20394.2724561000, 1.73372427525000E-011, 1984.44003671000 ) );
#341 = VECTOR( '', #395, 1000.00000000000 );
#342 = CARTESIAN_POINT( '', ( 20391.1660724000, 1.73372427525000E-011, 2013.07201849000 ) );
#343 = VECTOR( '', #396, 1000.00000000000 );
#344 = CARTESIAN_POINT( '', ( 20597.7782433000, 102.599999996000, 2006.51909027000 ) );
#345 = CARTESIAN_POINT( '', ( 20597.7782433000, -5.11590769747000E-012, 2006.51909027000 ) );
#346 = VECTOR( '', #397, 1000.00000000000 );
#347 = CARTESIAN_POINT( '', ( 20496.0253497000, 102.599999996000, 1995.47956349000 ) );
#348 = VECTOR( '', #398, 1000.00000000000 );
#349 = AXIS2_PLACEMENT_3D( '', #399, #400, #401 );
#350 = CARTESIAN_POINT( '', ( 20500.2364410000, 81.8999999994000, 2011.82915707000 ) );
#351 = CARTESIAN_POINT( '', ( 20500.2364410000, -81.8999999994000, 2011.82915707000 ) );
#352 = AXIS2_PLACEMENT_3D( '', #402, #403, #404 );
#353 = CARTESIAN_POINT( '', ( 20503.5386921000, -81.8999999994000, 1981.39183717000 ) );
#354 = VECTOR( '', #405, 1000.00000000000 );
#355 = CARTESIAN_POINT( '', ( 20503.5386921000, 81.8999999994000, 1981.39183717000 ) );
#356 = VECTOR( '', #406, 1000.00000000000 );
#357 = AXIS2_PLACEMENT_3D( '', #407, #408, #409 );
#358 = CARTESIAN_POINT( '', ( 20500.2364410000, -77.2500000000000, 2011.82915707000 ) );
#359 = CARTESIAN_POINT( '', ( 20500.2364410000, 77.2500000000000, 2011.82915707000 ) );
#360 = AXIS2_PLACEMENT_3D( '', #410, #411, #412 );
#361 = AXIS2_PLACEMENT_3D( '', #413, #414, #415 );
#362 = CARTESIAN_POINT( '', ( 20594.6718596000, 102.599999996000, 2035.15107205000 ) );
#363 = CARTESIAN_POINT( '', ( 20492.9189660000, 102.599999996000, 2024.11154527000 ) );
#364 = VECTOR( '', #416, 1000.00000000000 );
#365 = CARTESIAN_POINT( '', ( 20594.6718596000, -5.11590769747000E-012, 2035.15107205000 ) );
#366 = VECTOR( '', #417, 1000.00000000000 );
#367 = CARTESIAN_POINT( '', ( 20498.8342539000, 77.2500000000000, 2024.75331551000 ) );
#368 = CARTESIAN_POINT( '', ( 20498.8342539000, -77.2500000000000, 2024.75331551000 ) );
#369 = AXIS2_PLACEMENT_3D( '', #418, #419, #420 );
#370 = AXIS2_PLACEMENT_3D( '', #421, #422, #423 );
#371 = CARTESIAN_POINT( '', ( 20499.5353474000, -77.2500000000000, 2018.29123629000 ) );
#372 = VECTOR( '', #424, 1000.00000000000 );
#373 = CARTESIAN_POINT( '', ( 20499.5353474000, 77.2500000000000, 2018.29123629000 ) );
#374 = VECTOR( '', #425, 1000.00000000000 );
#375 = AXIS2_PLACEMENT_3D( '', #426, #427, #428 );
#376 = CARTESIAN_POINT( '', ( 20596.2250514000, 102.599999996000, 2020.83508116000 ) );
#377 = VECTOR( '', #429, 1000.00000000000 );
#378 = CARTESIAN_POINT( '', ( 20501.6170560000, -84.8999999994000, 1999.10383184000 ) );
#379 = DIRECTION( '', ( -0.994166033836304, -6.14888919491184E-014, -0.107860544993032 ) );
#380 = DIRECTION( '', ( 0.107860544993032, -5.66751890953203E-013, -0.994166033836303 ) );
#381 = CARTESIAN_POINT( '', ( 20501.9406376000, 2.29032071086000E-013, 1996.12133373000 ) );
#382 = DIRECTION( '', ( 0.107860544993033, -6.31439345256193E-016, -0.994166033836303 ) );
#383 = DIRECTION( '', ( 0.994166033836303, 6.85070597780966E-017, 0.107860544993033 ) );
#384 = CARTESIAN_POINT( '', ( 20501.6170560000, 84.8999999994000, 1999.10383184000 ) );
#385 = DIRECTION( '', ( 0.994166033836304, -6.39722107542192E-012, 0.107860544993032 ) );
#386 = DIRECTION( '', ( 0.107860544993032, 5.89640994724907E-011, -0.994166033836303 ) );
#387 = CARTESIAN_POINT( '', ( 20501.6170560000, 2.30926389122000E-013, 1999.10383184000 ) );
#388 = DIRECTION( '', ( 0.107860544993033, -6.31439345256193E-016, -0.994166033836303 ) );
#389 = DIRECTION( '', ( 0.994166033836303, 6.85070597780966E-017, 0.107860544993033 ) );
#390 = DIRECTION( '', ( -0.107860544993033, 0.000000000000000, 0.994166033836303 ) );
#391 = DIRECTION( '', ( -0.994166033836303, -0.000000000000000, -0.107860544993033 ) );
#392 = DIRECTION( '', ( -0.107860544993033, 0.000000000000000, 0.994166033836303 ) );
#393 = DIRECTION( '', ( 0.994166033836303, 0.000000000000000, 0.107860544993033 ) );
#394 = DIRECTION( '', ( -0.107860544993033, 0.000000000000000, 0.994166033836303 ) );
#395 = DIRECTION( '', ( -0.000000000000000, 1.00000000000000, -0.000000000000000 ) );
#396 = DIRECTION( '', ( 0.000000000000000, -1.00000000000000, 0.000000000000000 ) );
#397 = DIRECTION( '', ( -0.000000000000000, -1.00000000000000, -0.000000000000000 ) );
#398 = DIRECTION( '', ( 0.994166033836303, -2.07435436683063E-013, 0.107860544993033 ) );
#399 = CARTESIAN_POINT( '', ( 20501.9406376000, 2.53901066838000E-013, 1996.12133373000 ) );
#400 = DIRECTION( '', ( 0.107860544993033, -6.31439345256193E-016, -0.994166033836303 ) );
#401 = DIRECTION( '', ( 0.994166033836303, 6.85070597780966E-017, 0.107860544993033 ) );
#402 = CARTESIAN_POINT( '', ( 20500.2364410000, 0.000000000000000, 2011.82915707000 ) );
#403 = DIRECTION( '', ( -0.107860544993033, 0.000000000000000, 0.994166033836303 ) );
#404 = DIRECTION( '', ( 0.994166033836303, 0.000000000000000, 0.107860544993033 ) );
#405 = DIRECTION( '', ( 0.107860544993033, -0.000000000000000, -0.994166033836303 ) );
#406 = DIRECTION( '', ( 0.107860544993033, -0.000000000000000, -0.994166033836303 ) );
#407 = CARTESIAN_POINT( '', ( 20500.2364410000, 0.000000000000000, 2011.82915707000 ) );
#408 = DIRECTION( '', ( -0.107860544993033, 0.000000000000000, 0.994166033836303 ) );
#409 = DIRECTION( '', ( 0.994166033836303, 0.000000000000000, 0.107860544993033 ) );
#410 = CARTESIAN_POINT( '', ( 20500.2364410000, 0.000000000000000, 2011.82915707000 ) );
#411 = DIRECTION( '', ( -0.107860544993033, 0.000000000000000, 0.994166033836303 ) );
#412 = DIRECTION( '', ( 0.994166033836303, 0.000000000000000, 0.107860544993033 ) );
#413 = CARTESIAN_POINT( '', ( 20500.2364410000, 0.000000000000000, 2011.82915707000 ) );
#414 = DIRECTION( '', ( -0.107860544993033, 0.000000000000000, 0.994166033836303 ) );
#415 = DIRECTION( '', ( 0.994166033836303, 0.000000000000000, 0.107860544993033 ) );
#416 = DIRECTION( '', ( -0.994166033836303, 2.07435436683063E-013, -0.107860544993033 ) );
#417 = DIRECTION( '', ( 0.000000000000000, 1.00000000000000, 0.000000000000000 ) );
#418 = CARTESIAN_POINT( '', ( 20498.8342539000, 0.000000000000000, 2024.75331551000 ) );
#419 = DIRECTION( '', ( -0.107860544993033, 0.000000000000000, 0.994166033836303 ) );
#420 = DIRECTION( '', ( 0.994166033836303, 0.000000000000000, 0.107860544993033 ) );
#421 = CARTESIAN_POINT( '', ( 20498.8342539000, 0.000000000000000, 2024.75331551000 ) );
#422 = DIRECTION( '', ( -0.107860544993033, 0.000000000000000, 0.994166033836303 ) );
#423 = DIRECTION( '', ( 0.994166033836303, 0.000000000000000, 0.107860544993033 ) );
#424 = DIRECTION( '', ( 0.107860544993033, -0.000000000000000, -0.994166033836303 ) );
#425 = DIRECTION( '', ( 0.107860544993033, -0.000000000000000, -0.994166033836303 ) );
#426 = CARTESIAN_POINT( '', ( 20501.6170560000, 2.55795384874000E-013, 1999.10383184000 ) );
#427 = DIRECTION( '', ( 0.107860544993033, -6.31439345256193E-016, -0.994166033836303 ) );
#428 = DIRECTION( '', ( 0.994166033836303, 6.85070597780966E-017, 0.107860544993033 ) );
#429 = DIRECTION( '', ( -0.107860544993033, 0.000000000000000, 0.994166033836303 ) );
ENDSEC;
END-ISO-10303-21;
