ISO-10303-21;
HEADER;
/* Generated by software containing ST-Developer
 * from STEP Tools, Inc. (www.steptools.com) 
 */

FILE_DESCRIPTION(
/* description */ (''),
/* implementation_level */ '2;1');

FILE_NAME(
/* name */ 'SUPPORT LAT.step',
/* time_stamp */ '2023-07-07T12:01:33+02:00',
/* author */ (''),
/* organization */ (''),
/* preprocessor_version */ 'ST-DEVELOPER v19.2',
/* originating_system */ 'Autodesk Translation Framework v12.6.0.85',
/* authorisation */ '');

FILE_SCHEMA (('AUTOMOTIVE_DESIGN { 1 0 10303 214 3 1 1 }'));
ENDSEC;

DATA;
#10=MECHANICAL_DESIGN_GEOMETRIC_PRESENTATION_REPRESENTATION('',(#13),#554);
#11=SHAPE_REPRESENTATION_RELATIONSHIP('SRR','None',#561,#12);
#12=ADVANCED_BREP_SHAPE_REPRESENTATION('',(#14),#553);
#13=STYLED_ITEM('',(#570),#14);
#14=MANIFOLD_SOLID_BREP('Corps1',#330);
#15=CIRCLE('',#346,70.0000000000013);
#16=CIRCLE('',#347,70.0000000000013);
#17=CIRCLE('',#350,70.);
#18=CIRCLE('',#351,70.);
#19=CIRCLE('',#354,69.9999999999976);
#20=CIRCLE('',#355,69.9999999999976);
#21=CIRCLE('',#361,50.);
#22=CIRCLE('',#362,50.);
#23=CYLINDRICAL_SURFACE('',#345,70.0000000000013);
#24=CYLINDRICAL_SURFACE('',#349,70.);
#25=CYLINDRICAL_SURFACE('',#353,69.9999999999976);
#26=CYLINDRICAL_SURFACE('',#360,50.);
#27=FACE_OUTER_BOUND('',#44,.T.);
#28=FACE_OUTER_BOUND('',#45,.T.);
#29=FACE_OUTER_BOUND('',#46,.T.);
#30=FACE_OUTER_BOUND('',#47,.T.);
#31=FACE_OUTER_BOUND('',#48,.T.);
#32=FACE_OUTER_BOUND('',#49,.T.);
#33=FACE_OUTER_BOUND('',#50,.T.);
#34=FACE_OUTER_BOUND('',#51,.T.);
#35=FACE_OUTER_BOUND('',#52,.T.);
#36=FACE_OUTER_BOUND('',#53,.T.);
#37=FACE_OUTER_BOUND('',#54,.T.);
#38=FACE_OUTER_BOUND('',#55,.T.);
#39=FACE_OUTER_BOUND('',#56,.T.);
#40=FACE_OUTER_BOUND('',#57,.T.);
#41=FACE_OUTER_BOUND('',#58,.T.);
#42=FACE_OUTER_BOUND('',#59,.T.);
#43=FACE_OUTER_BOUND('',#60,.T.);
#44=EDGE_LOOP('',(#210,#211,#212,#213));
#45=EDGE_LOOP('',(#214,#215,#216,#217));
#46=EDGE_LOOP('',(#218,#219,#220,#221));
#47=EDGE_LOOP('',(#222,#223,#224,#225));
#48=EDGE_LOOP('',(#226,#227,#228,#229));
#49=EDGE_LOOP('',(#230,#231,#232,#233));
#50=EDGE_LOOP('',(#234,#235,#236,#237));
#51=EDGE_LOOP('',(#238,#239,#240,#241));
#52=EDGE_LOOP('',(#242,#243,#244,#245));
#53=EDGE_LOOP('',(#246,#247,#248,#249));
#54=EDGE_LOOP('',(#250,#251,#252,#253));
#55=EDGE_LOOP('',(#254,#255,#256,#257));
#56=EDGE_LOOP('',(#258,#259,#260,#261));
#57=EDGE_LOOP('',(#262,#263,#264,#265));
#58=EDGE_LOOP('',(#266,#267,#268,#269));
#59=EDGE_LOOP('',(#270,#271,#272,#273,#274,#275,#276,#277,#278,#279,#280,
#281,#282,#283,#284));
#60=EDGE_LOOP('',(#285,#286,#287,#288,#289,#290,#291,#292,#293,#294,#295,
#296,#297,#298,#299));
#61=LINE('',#462,#98);
#62=LINE('',#464,#99);
#63=LINE('',#466,#100);
#64=LINE('',#467,#101);
#65=LINE('',#473,#102);
#66=LINE('',#476,#103);
#67=LINE('',#478,#104);
#68=LINE('',#479,#105);
#69=LINE('',#485,#106);
#70=LINE('',#488,#107);
#71=LINE('',#490,#108);
#72=LINE('',#491,#109);
#73=LINE('',#497,#110);
#74=LINE('',#500,#111);
#75=LINE('',#502,#112);
#76=LINE('',#503,#113);
#77=LINE('',#506,#114);
#78=LINE('',#508,#115);
#79=LINE('',#509,#116);
#80=LINE('',#512,#117);
#81=LINE('',#514,#118);
#82=LINE('',#515,#119);
#83=LINE('',#518,#120);
#84=LINE('',#520,#121);
#85=LINE('',#521,#122);
#86=LINE('',#527,#123);
#87=LINE('',#530,#124);
#88=LINE('',#532,#125);
#89=LINE('',#533,#126);
#90=LINE('',#536,#127);
#91=LINE('',#538,#128);
#92=LINE('',#539,#129);
#93=LINE('',#542,#130);
#94=LINE('',#544,#131);
#95=LINE('',#545,#132);
#96=LINE('',#547,#133);
#97=LINE('',#548,#134);
#98=VECTOR('',#373,10.);
#99=VECTOR('',#374,10.);
#100=VECTOR('',#375,10.);
#101=VECTOR('',#376,10.);
#102=VECTOR('',#383,10.);
#103=VECTOR('',#386,10.);
#104=VECTOR('',#387,10.);
#105=VECTOR('',#388,10.);
#106=VECTOR('',#395,10.);
#107=VECTOR('',#398,10.);
#108=VECTOR('',#399,10.);
#109=VECTOR('',#400,10.);
#110=VECTOR('',#407,10.);
#111=VECTOR('',#410,10.);
#112=VECTOR('',#411,10.);
#113=VECTOR('',#412,10.);
#114=VECTOR('',#415,10.);
#115=VECTOR('',#416,10.);
#116=VECTOR('',#417,10.);
#117=VECTOR('',#420,10.);
#118=VECTOR('',#421,10.);
#119=VECTOR('',#422,10.);
#120=VECTOR('',#425,10.);
#121=VECTOR('',#426,10.);
#122=VECTOR('',#427,10.);
#123=VECTOR('',#434,10.);
#124=VECTOR('',#437,10.);
#125=VECTOR('',#438,10.);
#126=VECTOR('',#439,10.);
#127=VECTOR('',#442,10.);
#128=VECTOR('',#443,10.);
#129=VECTOR('',#444,10.);
#130=VECTOR('',#447,10.);
#131=VECTOR('',#448,10.);
#132=VECTOR('',#449,10.);
#133=VECTOR('',#452,10.);
#134=VECTOR('',#453,10.);
#135=VERTEX_POINT('',#460);
#136=VERTEX_POINT('',#461);
#137=VERTEX_POINT('',#463);
#138=VERTEX_POINT('',#465);
#139=VERTEX_POINT('',#469);
#140=VERTEX_POINT('',#471);
#141=VERTEX_POINT('',#475);
#142=VERTEX_POINT('',#477);
#143=VERTEX_POINT('',#481);
#144=VERTEX_POINT('',#483);
#145=VERTEX_POINT('',#487);
#146=VERTEX_POINT('',#489);
#147=VERTEX_POINT('',#493);
#148=VERTEX_POINT('',#495);
#149=VERTEX_POINT('',#499);
#150=VERTEX_POINT('',#501);
#151=VERTEX_POINT('',#505);
#152=VERTEX_POINT('',#507);
#153=VERTEX_POINT('',#511);
#154=VERTEX_POINT('',#513);
#155=VERTEX_POINT('',#517);
#156=VERTEX_POINT('',#519);
#157=VERTEX_POINT('',#523);
#158=VERTEX_POINT('',#525);
#159=VERTEX_POINT('',#529);
#160=VERTEX_POINT('',#531);
#161=VERTEX_POINT('',#535);
#162=VERTEX_POINT('',#537);
#163=VERTEX_POINT('',#541);
#164=VERTEX_POINT('',#543);
#165=EDGE_CURVE('',#135,#136,#61,.T.);
#166=EDGE_CURVE('',#136,#137,#62,.T.);
#167=EDGE_CURVE('',#138,#137,#63,.T.);
#168=EDGE_CURVE('',#135,#138,#64,.T.);
#169=EDGE_CURVE('',#135,#139,#15,.T.);
#170=EDGE_CURVE('',#140,#138,#16,.T.);
#171=EDGE_CURVE('',#139,#140,#65,.T.);
#172=EDGE_CURVE('',#141,#139,#66,.T.);
#173=EDGE_CURVE('',#142,#140,#67,.T.);
#174=EDGE_CURVE('',#141,#142,#68,.T.);
#175=EDGE_CURVE('',#141,#143,#17,.T.);
#176=EDGE_CURVE('',#144,#142,#18,.T.);
#177=EDGE_CURVE('',#143,#144,#69,.T.);
#178=EDGE_CURVE('',#145,#143,#70,.T.);
#179=EDGE_CURVE('',#146,#144,#71,.T.);
#180=EDGE_CURVE('',#145,#146,#72,.T.);
#181=EDGE_CURVE('',#145,#147,#19,.T.);
#182=EDGE_CURVE('',#148,#146,#20,.T.);
#183=EDGE_CURVE('',#147,#148,#73,.T.);
#184=EDGE_CURVE('',#149,#147,#74,.T.);
#185=EDGE_CURVE('',#150,#148,#75,.T.);
#186=EDGE_CURVE('',#149,#150,#76,.T.);
#187=EDGE_CURVE('',#151,#149,#77,.T.);
#188=EDGE_CURVE('',#152,#150,#78,.T.);
#189=EDGE_CURVE('',#151,#152,#79,.T.);
#190=EDGE_CURVE('',#153,#151,#80,.T.);
#191=EDGE_CURVE('',#154,#152,#81,.T.);
#192=EDGE_CURVE('',#153,#154,#82,.T.);
#193=EDGE_CURVE('',#155,#153,#83,.T.);
#194=EDGE_CURVE('',#156,#154,#84,.T.);
#195=EDGE_CURVE('',#155,#156,#85,.T.);
#196=EDGE_CURVE('',#157,#155,#21,.T.);
#197=EDGE_CURVE('',#158,#156,#22,.T.);
#198=EDGE_CURVE('',#157,#158,#86,.T.);
#199=EDGE_CURVE('',#159,#157,#87,.T.);
#200=EDGE_CURVE('',#160,#158,#88,.T.);
#201=EDGE_CURVE('',#159,#160,#89,.T.);
#202=EDGE_CURVE('',#161,#159,#90,.T.);
#203=EDGE_CURVE('',#162,#160,#91,.T.);
#204=EDGE_CURVE('',#161,#162,#92,.T.);
#205=EDGE_CURVE('',#163,#161,#93,.T.);
#206=EDGE_CURVE('',#164,#162,#94,.T.);
#207=EDGE_CURVE('',#163,#164,#95,.T.);
#208=EDGE_CURVE('',#136,#163,#96,.T.);
#209=EDGE_CURVE('',#137,#164,#97,.T.);
#210=ORIENTED_EDGE('',*,*,#165,.T.);
#211=ORIENTED_EDGE('',*,*,#166,.T.);
#212=ORIENTED_EDGE('',*,*,#167,.F.);
#213=ORIENTED_EDGE('',*,*,#168,.F.);
#214=ORIENTED_EDGE('',*,*,#169,.F.);
#215=ORIENTED_EDGE('',*,*,#168,.T.);
#216=ORIENTED_EDGE('',*,*,#170,.F.);
#217=ORIENTED_EDGE('',*,*,#171,.F.);
#218=ORIENTED_EDGE('',*,*,#172,.T.);
#219=ORIENTED_EDGE('',*,*,#171,.T.);
#220=ORIENTED_EDGE('',*,*,#173,.F.);
#221=ORIENTED_EDGE('',*,*,#174,.F.);
#222=ORIENTED_EDGE('',*,*,#175,.F.);
#223=ORIENTED_EDGE('',*,*,#174,.T.);
#224=ORIENTED_EDGE('',*,*,#176,.F.);
#225=ORIENTED_EDGE('',*,*,#177,.F.);
#226=ORIENTED_EDGE('',*,*,#178,.T.);
#227=ORIENTED_EDGE('',*,*,#177,.T.);
#228=ORIENTED_EDGE('',*,*,#179,.F.);
#229=ORIENTED_EDGE('',*,*,#180,.F.);
#230=ORIENTED_EDGE('',*,*,#181,.F.);
#231=ORIENTED_EDGE('',*,*,#180,.T.);
#232=ORIENTED_EDGE('',*,*,#182,.F.);
#233=ORIENTED_EDGE('',*,*,#183,.F.);
#234=ORIENTED_EDGE('',*,*,#184,.T.);
#235=ORIENTED_EDGE('',*,*,#183,.T.);
#236=ORIENTED_EDGE('',*,*,#185,.F.);
#237=ORIENTED_EDGE('',*,*,#186,.F.);
#238=ORIENTED_EDGE('',*,*,#187,.T.);
#239=ORIENTED_EDGE('',*,*,#186,.T.);
#240=ORIENTED_EDGE('',*,*,#188,.F.);
#241=ORIENTED_EDGE('',*,*,#189,.F.);
#242=ORIENTED_EDGE('',*,*,#190,.T.);
#243=ORIENTED_EDGE('',*,*,#189,.T.);
#244=ORIENTED_EDGE('',*,*,#191,.F.);
#245=ORIENTED_EDGE('',*,*,#192,.F.);
#246=ORIENTED_EDGE('',*,*,#193,.T.);
#247=ORIENTED_EDGE('',*,*,#192,.T.);
#248=ORIENTED_EDGE('',*,*,#194,.F.);
#249=ORIENTED_EDGE('',*,*,#195,.F.);
#250=ORIENTED_EDGE('',*,*,#196,.T.);
#251=ORIENTED_EDGE('',*,*,#195,.T.);
#252=ORIENTED_EDGE('',*,*,#197,.F.);
#253=ORIENTED_EDGE('',*,*,#198,.F.);
#254=ORIENTED_EDGE('',*,*,#199,.T.);
#255=ORIENTED_EDGE('',*,*,#198,.T.);
#256=ORIENTED_EDGE('',*,*,#200,.F.);
#257=ORIENTED_EDGE('',*,*,#201,.F.);
#258=ORIENTED_EDGE('',*,*,#202,.T.);
#259=ORIENTED_EDGE('',*,*,#201,.T.);
#260=ORIENTED_EDGE('',*,*,#203,.F.);
#261=ORIENTED_EDGE('',*,*,#204,.F.);
#262=ORIENTED_EDGE('',*,*,#205,.T.);
#263=ORIENTED_EDGE('',*,*,#204,.T.);
#264=ORIENTED_EDGE('',*,*,#206,.F.);
#265=ORIENTED_EDGE('',*,*,#207,.F.);
#266=ORIENTED_EDGE('',*,*,#208,.T.);
#267=ORIENTED_EDGE('',*,*,#207,.T.);
#268=ORIENTED_EDGE('',*,*,#209,.F.);
#269=ORIENTED_EDGE('',*,*,#166,.F.);
#270=ORIENTED_EDGE('',*,*,#209,.T.);
#271=ORIENTED_EDGE('',*,*,#206,.T.);
#272=ORIENTED_EDGE('',*,*,#203,.T.);
#273=ORIENTED_EDGE('',*,*,#200,.T.);
#274=ORIENTED_EDGE('',*,*,#197,.T.);
#275=ORIENTED_EDGE('',*,*,#194,.T.);
#276=ORIENTED_EDGE('',*,*,#191,.T.);
#277=ORIENTED_EDGE('',*,*,#188,.T.);
#278=ORIENTED_EDGE('',*,*,#185,.T.);
#279=ORIENTED_EDGE('',*,*,#182,.T.);
#280=ORIENTED_EDGE('',*,*,#179,.T.);
#281=ORIENTED_EDGE('',*,*,#176,.T.);
#282=ORIENTED_EDGE('',*,*,#173,.T.);
#283=ORIENTED_EDGE('',*,*,#170,.T.);
#284=ORIENTED_EDGE('',*,*,#167,.T.);
#285=ORIENTED_EDGE('',*,*,#208,.F.);
#286=ORIENTED_EDGE('',*,*,#165,.F.);
#287=ORIENTED_EDGE('',*,*,#169,.T.);
#288=ORIENTED_EDGE('',*,*,#172,.F.);
#289=ORIENTED_EDGE('',*,*,#175,.T.);
#290=ORIENTED_EDGE('',*,*,#178,.F.);
#291=ORIENTED_EDGE('',*,*,#181,.T.);
#292=ORIENTED_EDGE('',*,*,#184,.F.);
#293=ORIENTED_EDGE('',*,*,#187,.F.);
#294=ORIENTED_EDGE('',*,*,#190,.F.);
#295=ORIENTED_EDGE('',*,*,#193,.F.);
#296=ORIENTED_EDGE('',*,*,#196,.F.);
#297=ORIENTED_EDGE('',*,*,#199,.F.);
#298=ORIENTED_EDGE('',*,*,#202,.F.);
#299=ORIENTED_EDGE('',*,*,#205,.F.);
#300=PLANE('',#344);
#301=PLANE('',#348);
#302=PLANE('',#352);
#303=PLANE('',#356);
#304=PLANE('',#357);
#305=PLANE('',#358);
#306=PLANE('',#359);
#307=PLANE('',#363);
#308=PLANE('',#364);
#309=PLANE('',#365);
#310=PLANE('',#366);
#311=PLANE('',#367);
#312=PLANE('',#368);
#313=ADVANCED_FACE('',(#27),#300,.T.);
#314=ADVANCED_FACE('',(#28),#23,.F.);
#315=ADVANCED_FACE('',(#29),#301,.T.);
#316=ADVANCED_FACE('',(#30),#24,.F.);
#317=ADVANCED_FACE('',(#31),#302,.T.);
#318=ADVANCED_FACE('',(#32),#25,.F.);
#319=ADVANCED_FACE('',(#33),#303,.T.);
#320=ADVANCED_FACE('',(#34),#304,.T.);
#321=ADVANCED_FACE('',(#35),#305,.T.);
#322=ADVANCED_FACE('',(#36),#306,.T.);
#323=ADVANCED_FACE('',(#37),#26,.T.);
#324=ADVANCED_FACE('',(#38),#307,.T.);
#325=ADVANCED_FACE('',(#39),#308,.T.);
#326=ADVANCED_FACE('',(#40),#309,.T.);
#327=ADVANCED_FACE('',(#41),#310,.T.);
#328=ADVANCED_FACE('',(#42),#311,.T.);
#329=ADVANCED_FACE('',(#43),#312,.F.);
#330=CLOSED_SHELL('',(#313,#314,#315,#316,#317,#318,#319,#320,#321,#322,
#323,#324,#325,#326,#327,#328,#329));
#331=DERIVED_UNIT_ELEMENT(#333,1.);
#332=DERIVED_UNIT_ELEMENT(#556,-3.);
#333=(
MASS_UNIT()
NAMED_UNIT(*)
SI_UNIT(.KILO.,.GRAM.)
);
#334=DERIVED_UNIT((#331,#332));
#335=MEASURE_REPRESENTATION_ITEM('density measure',
POSITIVE_RATIO_MEASURE(7850.),#334);
#336=PROPERTY_DEFINITION_REPRESENTATION(#341,#338);
#337=PROPERTY_DEFINITION_REPRESENTATION(#342,#339);
#338=REPRESENTATION('material name',(#340),#553);
#339=REPRESENTATION('density',(#335),#553);
#340=DESCRIPTIVE_REPRESENTATION_ITEM('Acier','Acier');
#341=PROPERTY_DEFINITION('material property','material name',#563);
#342=PROPERTY_DEFINITION('material property','density of part',#563);
#343=AXIS2_PLACEMENT_3D('',#458,#369,#370);
#344=AXIS2_PLACEMENT_3D('',#459,#371,#372);
#345=AXIS2_PLACEMENT_3D('',#468,#377,#378);
#346=AXIS2_PLACEMENT_3D('',#470,#379,#380);
#347=AXIS2_PLACEMENT_3D('',#472,#381,#382);
#348=AXIS2_PLACEMENT_3D('',#474,#384,#385);
#349=AXIS2_PLACEMENT_3D('',#480,#389,#390);
#350=AXIS2_PLACEMENT_3D('',#482,#391,#392);
#351=AXIS2_PLACEMENT_3D('',#484,#393,#394);
#352=AXIS2_PLACEMENT_3D('',#486,#396,#397);
#353=AXIS2_PLACEMENT_3D('',#492,#401,#402);
#354=AXIS2_PLACEMENT_3D('',#494,#403,#404);
#355=AXIS2_PLACEMENT_3D('',#496,#405,#406);
#356=AXIS2_PLACEMENT_3D('',#498,#408,#409);
#357=AXIS2_PLACEMENT_3D('',#504,#413,#414);
#358=AXIS2_PLACEMENT_3D('',#510,#418,#419);
#359=AXIS2_PLACEMENT_3D('',#516,#423,#424);
#360=AXIS2_PLACEMENT_3D('',#522,#428,#429);
#361=AXIS2_PLACEMENT_3D('',#524,#430,#431);
#362=AXIS2_PLACEMENT_3D('',#526,#432,#433);
#363=AXIS2_PLACEMENT_3D('',#528,#435,#436);
#364=AXIS2_PLACEMENT_3D('',#534,#440,#441);
#365=AXIS2_PLACEMENT_3D('',#540,#445,#446);
#366=AXIS2_PLACEMENT_3D('',#546,#450,#451);
#367=AXIS2_PLACEMENT_3D('',#549,#454,#455);
#368=AXIS2_PLACEMENT_3D('',#550,#456,#457);
#369=DIRECTION('axis',(0.,0.,1.));
#370=DIRECTION('refdir',(1.,0.,0.));
#371=DIRECTION('center_axis',(0.,0.707106781186547,0.707106781186548));
#372=DIRECTION('ref_axis',(0.,-0.707106781186548,0.707106781186547));
#373=DIRECTION('',(0.,-0.707106781186548,0.707106781186547));
#374=DIRECTION('',(1.,0.,0.));
#375=DIRECTION('',(0.,-0.707106781186548,0.707106781186547));
#376=DIRECTION('',(1.,0.,0.));
#377=DIRECTION('center_axis',(1.,0.,0.));
#378=DIRECTION('ref_axis',(0.,-0.707106781186541,-0.707106781186554));
#379=DIRECTION('center_axis',(1.,0.,0.));
#380=DIRECTION('ref_axis',(0.,-0.707106781186541,-0.707106781186554));
#381=DIRECTION('center_axis',(-1.,0.,0.));
#382=DIRECTION('ref_axis',(0.,-0.707106781186541,-0.707106781186554));
#383=DIRECTION('',(1.,0.,0.));
#384=DIRECTION('center_axis',(0.,-2.86033034433478E-16,1.));
#385=DIRECTION('ref_axis',(0.,-1.,-2.86033034433478E-16));
#386=DIRECTION('',(0.,-1.,-2.86033034433478E-16));
#387=DIRECTION('',(0.,-1.,-2.86033034433478E-16));
#388=DIRECTION('',(1.,0.,0.));
#389=DIRECTION('center_axis',(1.,0.,0.));
#390=DIRECTION('ref_axis',(0.,2.03012210217172E-15,-1.));
#391=DIRECTION('center_axis',(1.,0.,0.));
#392=DIRECTION('ref_axis',(0.,2.03012210217172E-15,-1.));
#393=DIRECTION('center_axis',(-1.,0.,0.));
#394=DIRECTION('ref_axis',(0.,2.03012210217172E-15,-1.));
#395=DIRECTION('',(1.,0.,0.));
#396=DIRECTION('center_axis',(0.,-1.,0.));
#397=DIRECTION('ref_axis',(0.,0.,-1.));
#398=DIRECTION('',(0.,0.,-1.));
#399=DIRECTION('',(0.,0.,-1.));
#400=DIRECTION('',(1.,0.,0.));
#401=DIRECTION('center_axis',(1.,0.,0.));
#402=DIRECTION('ref_axis',(0.,1.,-2.53765262771473E-14));
#403=DIRECTION('center_axis',(1.,0.,0.));
#404=DIRECTION('ref_axis',(0.,1.,-2.53765262771473E-14));
#405=DIRECTION('center_axis',(-1.,0.,0.));
#406=DIRECTION('ref_axis',(0.,1.,-2.53765262771473E-14));
#407=DIRECTION('',(1.,0.,0.));
#408=DIRECTION('center_axis',(0.,-0.499999999999999,-0.866025403784439));
#409=DIRECTION('ref_axis',(0.,0.866025403784439,-0.499999999999999));
#410=DIRECTION('',(0.,0.866025403784439,-0.499999999999999));
#411=DIRECTION('',(0.,0.866025403784439,-0.499999999999999));
#412=DIRECTION('',(1.,0.,0.));
#413=DIRECTION('center_axis',(0.,-1.,2.368475785867E-15));
#414=DIRECTION('ref_axis',(0.,-2.368475785867E-15,-1.));
#415=DIRECTION('',(0.,-2.368475785867E-15,-1.));
#416=DIRECTION('',(0.,-2.368475785867E-15,-1.));
#417=DIRECTION('',(1.,0.,0.));
#418=DIRECTION('center_axis',(0.,-0.22495105434386,0.974370064785236));
#419=DIRECTION('ref_axis',(0.,-0.974370064785236,-0.22495105434386));
#420=DIRECTION('',(0.,-0.974370064785236,-0.22495105434386));
#421=DIRECTION('',(0.,-0.974370064785236,-0.22495105434386));
#422=DIRECTION('',(1.,0.,0.));
#423=DIRECTION('center_axis',(0.,0.,1.));
#424=DIRECTION('ref_axis',(0.,-1.,0.));
#425=DIRECTION('',(0.,-1.,0.));
#426=DIRECTION('',(0.,-1.,0.));
#427=DIRECTION('',(1.,0.,0.));
#428=DIRECTION('center_axis',(1.,0.,0.));
#429=DIRECTION('ref_axis',(0.,1.,0.));
#430=DIRECTION('center_axis',(1.,0.,0.));
#431=DIRECTION('ref_axis',(0.,1.,0.));
#432=DIRECTION('center_axis',(1.,0.,0.));
#433=DIRECTION('ref_axis',(0.,1.,0.));
#434=DIRECTION('',(1.,0.,0.));
#435=DIRECTION('center_axis',(0.,1.,0.));
#436=DIRECTION('ref_axis',(0.,0.,1.));
#437=DIRECTION('',(0.,0.,1.));
#438=DIRECTION('',(0.,0.,1.));
#439=DIRECTION('',(1.,0.,0.));
#440=DIRECTION('center_axis',(0.,0.,-1.));
#441=DIRECTION('ref_axis',(0.,1.,0.));
#442=DIRECTION('',(0.,1.,0.));
#443=DIRECTION('',(0.,1.,0.));
#444=DIRECTION('',(1.,0.,0.));
#445=DIRECTION('center_axis',(0.,-1.,1.26665341916277E-16));
#446=DIRECTION('ref_axis',(0.,-1.26665341916277E-16,-1.));
#447=DIRECTION('',(0.,-1.26665341916277E-16,-1.));
#448=DIRECTION('',(0.,-1.26665341916277E-16,-1.));
#449=DIRECTION('',(1.,0.,0.));
#450=DIRECTION('center_axis',(0.,-0.0697564737441257,0.997564050259824));
#451=DIRECTION('ref_axis',(0.,-0.997564050259824,-0.0697564737441257));
#452=DIRECTION('',(0.,-0.997564050259824,-0.0697564737441257));
#453=DIRECTION('',(0.,-0.997564050259824,-0.0697564737441257));
#454=DIRECTION('center_axis',(1.,0.,0.));
#455=DIRECTION('ref_axis',(0.,1.,0.));
#456=DIRECTION('center_axis',(1.,0.,0.));
#457=DIRECTION('ref_axis',(0.,1.,0.));
#458=CARTESIAN_POINT('',(0.,0.,0.));
#459=CARTESIAN_POINT('Origin',(0.,219.986496474585,120.502525316942));
#460=CARTESIAN_POINT('',(0.,219.986496474585,120.502525316942));
#461=CARTESIAN_POINT('',(0.,150.,190.489021791527));
#462=CARTESIAN_POINT('',(0.,219.986496474585,120.502525316942));
#463=CARTESIAN_POINT('',(18.,150.,190.489021791527));
#464=CARTESIAN_POINT('',(0.,150.,190.489021791527));
#465=CARTESIAN_POINT('',(18.,219.986496474585,120.502525316942));
#466=CARTESIAN_POINT('',(18.,219.986496474585,120.502525316942));
#467=CARTESIAN_POINT('',(0.,219.986496474585,120.502525316942));
#468=CARTESIAN_POINT('Origin',(0.,269.483971157644,170.000000000001));
#469=CARTESIAN_POINT('',(0.,269.483971157644,100.));
#470=CARTESIAN_POINT('Origin',(0.,269.483971157644,170.000000000001));
#471=CARTESIAN_POINT('',(18.,269.483971157644,100.));
#472=CARTESIAN_POINT('Origin',(18.,269.483971157644,170.000000000001));
#473=CARTESIAN_POINT('',(0.,269.483971157644,100.));
#474=CARTESIAN_POINT('Origin',(0.,580.,100.));
#475=CARTESIAN_POINT('',(0.,580.,100.));
#476=CARTESIAN_POINT('',(0.,580.,100.));
#477=CARTESIAN_POINT('',(18.,580.,100.));
#478=CARTESIAN_POINT('',(18.,580.,100.));
#479=CARTESIAN_POINT('',(0.,580.,100.));
#480=CARTESIAN_POINT('Origin',(0.,579.999999999999,170.));
#481=CARTESIAN_POINT('',(0.,649.999999999999,170.));
#482=CARTESIAN_POINT('Origin',(0.,579.999999999999,170.));
#483=CARTESIAN_POINT('',(18.,649.999999999999,170.));
#484=CARTESIAN_POINT('Origin',(18.,579.999999999999,170.));
#485=CARTESIAN_POINT('',(0.,649.999999999999,170.));
#486=CARTESIAN_POINT('Origin',(0.,649.999999999999,341.217269391369));
#487=CARTESIAN_POINT('',(0.,649.999999999999,341.217269391369));
#488=CARTESIAN_POINT('',(0.,649.999999999999,341.217269391369));
#489=CARTESIAN_POINT('',(18.,649.999999999999,341.217269391369));
#490=CARTESIAN_POINT('',(18.,649.999999999999,341.217269391369));
#491=CARTESIAN_POINT('',(0.,649.999999999999,341.217269391369));
#492=CARTESIAN_POINT('Origin',(0.,580.000000000002,341.21726939137));
#493=CARTESIAN_POINT('',(0.,615.,401.839047656279));
#494=CARTESIAN_POINT('Origin',(0.,580.000000000002,341.21726939137));
#495=CARTESIAN_POINT('',(18.,615.,401.839047656279));
#496=CARTESIAN_POINT('Origin',(18.,580.000000000002,341.21726939137));
#497=CARTESIAN_POINT('',(0.,615.,401.839047656279));
#498=CARTESIAN_POINT('Origin',(0.,490.,474.007831304982));
#499=CARTESIAN_POINT('',(0.,490.,474.007831304982));
#500=CARTESIAN_POINT('',(0.,490.,474.007831304982));
#501=CARTESIAN_POINT('',(18.,490.,474.007831304982));
#502=CARTESIAN_POINT('',(18.,490.,474.007831304982));
#503=CARTESIAN_POINT('',(0.,490.,474.007831304982));
#504=CARTESIAN_POINT('Origin',(0.,490.,504.007831304982));
#505=CARTESIAN_POINT('',(0.,490.,504.007831304982));
#506=CARTESIAN_POINT('',(0.,490.,504.007831304982));
#507=CARTESIAN_POINT('',(18.,490.,504.007831304982));
#508=CARTESIAN_POINT('',(18.,490.,504.007831304982));
#509=CARTESIAN_POINT('',(0.,490.,504.007831304982));
#510=CARTESIAN_POINT('Origin',(0.,645.899210365638,540.));
#511=CARTESIAN_POINT('',(0.,645.899210365638,540.));
#512=CARTESIAN_POINT('',(0.,645.899210365638,540.));
#513=CARTESIAN_POINT('',(18.,645.899210365638,540.));
#514=CARTESIAN_POINT('',(18.,645.899210365638,540.));
#515=CARTESIAN_POINT('',(0.,645.899210365638,540.));
#516=CARTESIAN_POINT('Origin',(0.,850.,540.));
#517=CARTESIAN_POINT('',(0.,850.,540.));
#518=CARTESIAN_POINT('',(0.,850.,540.));
#519=CARTESIAN_POINT('',(18.,850.,540.));
#520=CARTESIAN_POINT('',(18.,850.,540.));
#521=CARTESIAN_POINT('',(0.,850.,540.));
#522=CARTESIAN_POINT('Origin',(0.,850.,490.));
#523=CARTESIAN_POINT('',(0.,900.,490.));
#524=CARTESIAN_POINT('Origin',(0.,850.,490.));
#525=CARTESIAN_POINT('',(18.,900.,490.));
#526=CARTESIAN_POINT('Origin',(18.,850.,490.));
#527=CARTESIAN_POINT('',(0.,900.,490.));
#528=CARTESIAN_POINT('Origin',(0.,900.,0.));
#529=CARTESIAN_POINT('',(0.,900.,0.));
#530=CARTESIAN_POINT('',(0.,900.,0.));
#531=CARTESIAN_POINT('',(18.,900.,0.));
#532=CARTESIAN_POINT('',(18.,900.,0.));
#533=CARTESIAN_POINT('',(0.,900.,0.));
#534=CARTESIAN_POINT('Origin',(0.,0.,0.));
#535=CARTESIAN_POINT('',(0.,0.,0.));
#536=CARTESIAN_POINT('',(0.,0.,0.));
#537=CARTESIAN_POINT('',(18.,0.,0.));
#538=CARTESIAN_POINT('',(18.,0.,0.));
#539=CARTESIAN_POINT('',(0.,0.,0.));
#540=CARTESIAN_POINT('Origin',(0.,2.27997615449299E-14,180.));
#541=CARTESIAN_POINT('',(0.,2.27997615449299E-14,180.));
#542=CARTESIAN_POINT('',(0.,2.27997615449299E-14,180.));
#543=CARTESIAN_POINT('',(18.,1.77635683940025E-14,180.));
#544=CARTESIAN_POINT('',(18.,2.27997615449299E-14,180.));
#545=CARTESIAN_POINT('',(0.,2.27997615449299E-14,180.));
#546=CARTESIAN_POINT('Origin',(0.,150.,190.489021791527));
#547=CARTESIAN_POINT('',(0.,150.,190.489021791527));
#548=CARTESIAN_POINT('',(18.,150.,190.489021791527));
#549=CARTESIAN_POINT('Origin',(18.,450.,270.));
#550=CARTESIAN_POINT('Origin',(0.,450.,270.));
#551=UNCERTAINTY_MEASURE_WITH_UNIT(LENGTH_MEASURE(0.01),#555,
'DISTANCE_ACCURACY_VALUE',
'Maximum model space distance between geometric entities at asserted c
onnectivities');
#552=UNCERTAINTY_MEASURE_WITH_UNIT(LENGTH_MEASURE(0.01),#555,
'DISTANCE_ACCURACY_VALUE',
'Maximum model space distance between geometric entities at asserted c
onnectivities');
#553=(
GEOMETRIC_REPRESENTATION_CONTEXT(3)
GLOBAL_UNCERTAINTY_ASSIGNED_CONTEXT((#551))
GLOBAL_UNIT_ASSIGNED_CONTEXT((#555,#557,#558))
REPRESENTATION_CONTEXT('','3D')
);
#554=(
GEOMETRIC_REPRESENTATION_CONTEXT(3)
GLOBAL_UNCERTAINTY_ASSIGNED_CONTEXT((#552))
GLOBAL_UNIT_ASSIGNED_CONTEXT((#555,#557,#558))
REPRESENTATION_CONTEXT('','3D')
);
#555=(
LENGTH_UNIT()
NAMED_UNIT(*)
SI_UNIT(.MILLI.,.METRE.)
);
#556=(
LENGTH_UNIT()
NAMED_UNIT(*)
SI_UNIT($,.METRE.)
);
#557=(
NAMED_UNIT(*)
PLANE_ANGLE_UNIT()
SI_UNIT($,.RADIAN.)
);
#558=(
NAMED_UNIT(*)
SI_UNIT($,.STERADIAN.)
SOLID_ANGLE_UNIT()
);
#559=SHAPE_DEFINITION_REPRESENTATION(#560,#561);
#560=PRODUCT_DEFINITION_SHAPE('',$,#563);
#561=SHAPE_REPRESENTATION('',(#343),#553);
#562=PRODUCT_DEFINITION_CONTEXT('part definition',#567,'design');
#563=PRODUCT_DEFINITION('SUPPORT VOLANT LAT','SUPPORT VOLANT LAT v3',#564,
#562);
#564=PRODUCT_DEFINITION_FORMATION('',$,#569);
#565=PRODUCT_RELATED_PRODUCT_CATEGORY('SUPPORT VOLANT LAT v3',
'SUPPORT VOLANT LAT v3',(#569));
#566=APPLICATION_PROTOCOL_DEFINITION('international standard',
'automotive_design',2009,#567);
#567=APPLICATION_CONTEXT(
'Core Data for Automotive Mechanical Design Process');
#568=PRODUCT_CONTEXT('part definition',#567,'mechanical');
#569=PRODUCT('SUPPORT VOLANT LAT','SUPPORT VOLANT LAT v3',$,(#568));
#570=PRESENTATION_STYLE_ASSIGNMENT((#571));
#571=SURFACE_STYLE_USAGE(.BOTH.,#572);
#572=SURFACE_SIDE_STYLE('',(#573));
#573=SURFACE_STYLE_FILL_AREA(#574);
#574=FILL_AREA_STYLE('Acier - Satin\X\E9',(#575));
#575=FILL_AREA_STYLE_COLOUR('Acier - Satin\X\E9',#576);
#576=COLOUR_RGB('Acier - Satin\X\E9',0.627450980392157,0.627450980392157,
0.627450980392157);
ENDSEC;
END-ISO-10303-21;
