ISO-10303-21;
HEADER;
FILE_DESCRIPTION (( 'STEP AP214' ),
    '1' );
FILE_NAME ('Pièce2.STEP',
    '2023-07-12T07:36:06',
    ( '' ),
    ( '' ),
    'SwSTEP 2.0',
    'SolidWorks 2023',
    '' );
FILE_SCHEMA (( 'AUTOMOTIVE_DESIGN' ));
ENDSEC;

DATA;
#1 = CYLINDRICAL_SURFACE ( 'NONE', #74, 2.950000000000000622 ) ;
#2 = CARTESIAN_POINT ( 'NONE',  ( -1.950000000000000844, 3.000384657911016849E-16, 0.000000000000000000 ) ) ;
#3 = ORIENTED_EDGE ( 'NONE', *, *, #187, .F. ) ;
#4 = CARTESIAN_POINT ( 'NONE',  ( -1.950000000000000844, 3.000384657911016849E-16, 100.0000000000000000 ) ) ;
#5 = ORIENTED_EDGE ( 'NONE', *, *, #105, .F. ) ;
#6 = CARTESIAN_POINT ( 'NONE',  ( 1.950000000000000844, 0.000000000000000000, 99.00000000000000000 ) ) ;
#7 = DIRECTION ( 'NONE',  ( 0.000000000000000000, 0.000000000000000000, 1.000000000000000000 ) ) ;
#8 = AXIS2_PLACEMENT_3D ( 'NONE', #176, #64, #84 ) ;
#9 = ORIENTED_EDGE ( 'NONE', *, *, #197, .F. ) ;
#10 = CARTESIAN_POINT ( 'NONE',  ( 1.950000000000000844, 0.000000000000000000, 100.0000000000000000 ) ) ;
#11 = CARTESIAN_POINT ( 'NONE',  ( -2.950000000000000622, 0.000000000000000000, 1.000000000000000888 ) ) ;
#12 = ADVANCED_FACE ( 'NONE', ( #217 ), #109, .T. ) ;
#13 = UNCERTAINTY_MEASURE_WITH_UNIT (LENGTH_MEASURE( 1.000000000000000082E-05 ), #36, 'distance_accuracy_value', 'NONE');
#14 = AXIS2_PLACEMENT_3D ( 'NONE', #203, #71, #39 ) ;
#15 = ADVANCED_FACE ( 'NONE', ( #150 ), #224, .T. ) ;
#16 = ORIENTED_EDGE ( 'NONE', *, *, #47, .F. ) ;
#17 = AXIS2_PLACEMENT_3D ( 'NONE', #108, #68, #185 ) ;
#18 = ADVANCED_FACE ( 'NONE', ( #145 ), #209, .T. ) ;
#19 = DIRECTION ( 'NONE',  ( -0.000000000000000000, -0.000000000000000000, -1.000000000000000000 ) ) ;
#20 = ORIENTED_EDGE ( 'NONE', *, *, #102, .T. ) ;
#21 = CIRCLE ( 'NONE', #119, 2.950000000000000622 ) ;
#22 = DIRECTION ( 'NONE',  ( 1.224646799147353207E-16, 1.000000000000000000, -0.000000000000000000 ) ) ;
#23 = PLANE ( 'NONE',  #76 ) ;
#24 = ORIENTED_EDGE ( 'NONE', *, *, #118, .T. ) ;
#25 = ORIENTED_EDGE ( 'NONE', *, *, #47, .T. ) ;
#26 = VERTEX_POINT ( 'NONE', #149 ) ;
#27 = CARTESIAN_POINT ( 'NONE',  ( -1.950000000000000844, 2.388061258337340122E-16, 99.00000000000000000 ) ) ;
#28 = PRODUCT_DEFINITION_SHAPE ( 'NONE', 'NONE',  #155 ) ;
#29 = ADVANCED_FACE ( 'NONE', ( #134 ), #104, .F. ) ;
#30 = DIRECTION ( 'NONE',  ( 0.000000000000000000, 0.000000000000000000, 1.000000000000000000 ) ) ;
#31 = FACE_OUTER_BOUND ( 'NONE', #161, .T. ) ;
#32 = SURFACE_STYLE_FILL_AREA ( #138 ) ;
#33 = ORIENTED_EDGE ( 'NONE', *, *, #182, .F. ) ;
#34 = CIRCLE ( 'NONE', #171, 1.950000000000000844 ) ;
#35 = FACE_OUTER_BOUND ( 'NONE', #144, .T. ) ;
#36 =( LENGTH_UNIT ( ) NAMED_UNIT ( * ) SI_UNIT ( .MILLI., .METRE. ) );
#37 = PRODUCT_CONTEXT ( 'NONE', #172, 'mechanical' ) ;
#38 = CARTESIAN_POINT ( 'NONE',  ( 2.950000000000000622, 3.612708057484692590E-16, 100.0000000000000000 ) ) ;
#39 = DIRECTION ( 'NONE',  ( 1.000000000000000000, 0.000000000000000000, 0.000000000000000000 ) ) ;
#40 = EDGE_LOOP ( 'NONE', ( #5, #57, #173, #91 ) ) ;
#41 = DIRECTION ( 'NONE',  ( 0.000000000000000000, 0.000000000000000000, 1.000000000000000000 ) ) ;
#42 = STYLED_ITEM ( 'NONE', ( #142 ), #126 ) ;
#43 = EDGE_CURVE ( 'NONE', #112, #156, #214, .T. ) ;
#44 = ORIENTED_EDGE ( 'NONE', *, *, #56, .T. ) ;
#45 = DIRECTION ( 'NONE',  ( 0.000000000000000000, 0.000000000000000000, 1.000000000000000000 ) ) ;
#46 = TOROIDAL_SURFACE ( 'NONE', #78, 1.950000000000000844, 1.000000000000000000 ) ;
#47 = EDGE_CURVE ( 'NONE', #55, #156, #154, .T. ) ;
#48 = AXIS2_PLACEMENT_3D ( 'NONE', #129, #200, #124 ) ;
#49 = AXIS2_PLACEMENT_3D ( 'NONE', #94, #41, #211 ) ;
#50 = DIRECTION ( 'NONE',  ( 1.000000000000000000, 0.000000000000000000, 0.000000000000000000 ) ) ;
#51 = ORIENTED_EDGE ( 'NONE', *, *, #72, .T. ) ;
#52 = DIRECTION ( 'NONE',  ( 1.000000000000000000, 0.000000000000000000, -0.000000000000000000 ) ) ;
#53 = EDGE_LOOP ( 'NONE', ( #225, #96, #16, #198 ) ) ;
#54 = CIRCLE ( 'NONE', #220, 1.000000000000000000 ) ;
#55 = VERTEX_POINT ( 'NONE', #195 ) ;
#56 = EDGE_CURVE ( 'NONE', #87, #178, #186, .T. ) ;
#57 = ORIENTED_EDGE ( 'NONE', *, *, #187, .T. ) ;
#58 = AXIS2_PLACEMENT_3D ( 'NONE', #101, #103, #66 ) ;
#59 = TOROIDAL_SURFACE ( 'NONE', #201, 1.950000000000000844, 1.000000000000000000 ) ;
#60 = DIRECTION ( 'NONE',  ( -0.000000000000000000, -0.000000000000000000, -1.000000000000000000 ) ) ;
#61 = AXIS2_PLACEMENT_3D ( 'NONE', #177, #165, #115 ) ;
#62 = ORIENTED_EDGE ( 'NONE', *, *, #168, .F. ) ;
#63 = CIRCLE ( 'NONE', #226, 2.950000000000000622 ) ;
#64 = DIRECTION ( 'NONE',  ( 0.000000000000000000, 0.000000000000000000, 1.000000000000000000 ) ) ;
#65 = DIRECTION ( 'NONE',  ( 1.000000000000000000, 0.000000000000000000, 0.000000000000000000 ) ) ;
#66 = DIRECTION ( 'NONE',  ( 1.000000000000000000, 0.000000000000000000, 0.000000000000000000 ) ) ;
#67 = ORIENTED_EDGE ( 'NONE', *, *, #72, .F. ) ;
#68 = DIRECTION ( 'NONE',  ( 0.000000000000000000, 0.000000000000000000, 1.000000000000000000 ) ) ;
#69 = EDGE_LOOP ( 'NONE', ( #33, #131, #169, #62 ) ) ;
#70 = DIRECTION ( 'NONE',  ( 1.000000000000000000, 0.000000000000000000, 0.000000000000000000 ) ) ;
#71 = DIRECTION ( 'NONE',  ( 0.000000000000000000, 0.000000000000000000, 1.000000000000000000 ) ) ;
#72 = EDGE_CURVE ( 'NONE', #112, #87, #81, .T. ) ;
#73 = APPLICATION_CONTEXT ( 'automotive_design' ) ;
#74 = AXIS2_PLACEMENT_3D ( 'NONE', #181, #132, #162 ) ;
#75 = ORIENTED_EDGE ( 'NONE', *, *, #139, .T. ) ;
#76 = AXIS2_PLACEMENT_3D ( 'NONE', #89, #164, #52 ) ;
#77 = DIRECTION ( 'NONE',  ( 1.000000000000000000, 0.000000000000000000, 0.000000000000000000 ) ) ;
#78 = AXIS2_PLACEMENT_3D ( 'NONE', #202, #199, #70 ) ;
#79 = ADVANCED_FACE ( 'NONE', ( #88 ), #1, .T. ) ;
#80 = AXIS2_PLACEMENT_3D ( 'NONE', #123, #30, #106 ) ;
#81 = CIRCLE ( 'NONE', #215, 1.000000000000000000 ) ;
#82 = FACE_OUTER_BOUND ( 'NONE', #53, .T. ) ;
#83 = MECHANICAL_DESIGN_GEOMETRIC_PRESENTATION_REPRESENTATION (  '', ( #42 ), #221 ) ;
#84 = DIRECTION ( 'NONE',  ( 1.000000000000000000, 0.000000000000000000, -0.000000000000000000 ) ) ;
#85 =( NAMED_UNIT ( * ) SI_UNIT ( $, .STERADIAN. ) SOLID_ANGLE_UNIT ( ) );
#86 = CIRCLE ( 'NONE', #188, 2.950000000000000622 ) ;
#87 = VERTEX_POINT ( 'NONE', #4 ) ;
#88 = FACE_OUTER_BOUND ( 'NONE', #40, .T. ) ;
#89 = CARTESIAN_POINT ( 'NONE',  ( 0.000000000000000000, 0.000000000000000000, 100.0000000000000000 ) ) ;
#90 = SHAPE_DEFINITION_REPRESENTATION ( #28, #184 ) ;
#91 = ORIENTED_EDGE ( 'NONE', *, *, #168, .T. ) ;
#92 = DIRECTION ( 'NONE',  ( -1.000000000000000000, 1.224646799147352961E-16, 0.000000000000000000 ) ) ;
#93 = EDGE_LOOP ( 'NONE', ( #67, #3, #20, #100 ) ) ;
#94 = CARTESIAN_POINT ( 'NONE',  ( 0.000000000000000000, 0.000000000000000000, 1.000000000000000888 ) ) ;
#95 = APPLICATION_PROTOCOL_DEFINITION ( 'draft international standard', 'automotive_design', 1998, #172 ) ;
#96 = ORIENTED_EDGE ( 'NONE', *, *, #182, .T. ) ;
#97 =( GEOMETRIC_REPRESENTATION_CONTEXT ( 3 ) GLOBAL_UNCERTAINTY_ASSIGNED_CONTEXT ( ( #13 ) ) GLOBAL_UNIT_ASSIGNED_CONTEXT ( ( #36, #179, #85 ) ) REPRESENTATION_CONTEXT ( 'NONE', 'WORKASPACE' ) );
#98 = ADVANCED_FACE ( 'NONE', ( #35 ), #46, .T. ) ;
#99 = COLOUR_RGB ( '',0.7921568627450980005, 0.8196078431372548767, 0.9333333333333333481 ) ;
#100 = ORIENTED_EDGE ( 'NONE', *, *, #56, .F. ) ;
#101 = CARTESIAN_POINT ( 'NONE',  ( 0.000000000000000000, 0.000000000000000000, 0.000000000000000000 ) ) ;
#102 = EDGE_CURVE ( 'NONE', #204, #178, #229, .T. ) ;
#103 = DIRECTION ( 'NONE',  ( -0.000000000000000000, -0.000000000000000000, -1.000000000000000000 ) ) ;
#104 = PLANE ( 'NONE',  #8 ) ;
#105 = EDGE_CURVE ( 'NONE', #204, #55, #111, .T. ) ;
#106 = DIRECTION ( 'NONE',  ( 1.000000000000000000, 0.000000000000000000, 0.000000000000000000 ) ) ;
#107 = PRODUCT ( 'Pi\X2\00e8\X0\ce2', 'Pi\X2\00e8\X0\ce2', '', ( #37 ) ) ;
#108 = CARTESIAN_POINT ( 'NONE',  ( 0.000000000000000000, 0.000000000000000000, 100.0000000000000000 ) ) ;
#109 = CYLINDRICAL_SURFACE ( 'NONE', #61, 2.950000000000000622 ) ;
#110 = VERTEX_POINT ( 'NONE', #2 ) ;
#111 = LINE ( 'NONE', #38, #113 ) ;
#112 = VERTEX_POINT ( 'NONE', #141 ) ;
#113 = VECTOR ( 'NONE', #216, 1000.000000000000000 ) ;
#114 = DIRECTION ( 'NONE',  ( -1.000000000000000000, 1.224646799147352961E-16, 0.000000000000000000 ) ) ;
#115 = DIRECTION ( 'NONE',  ( -1.000000000000000000, 0.000000000000000000, 0.000000000000000000 ) ) ;
#116 = PRODUCT_RELATED_PRODUCT_CATEGORY ( 'part', '', ( #107 ) ) ;
#117 = DIRECTION ( 'NONE',  ( 1.000000000000000000, 0.000000000000000000, 0.000000000000000000 ) ) ;
#118 = EDGE_CURVE ( 'NONE', #26, #110, #140, .T. ) ;
#119 = AXIS2_PLACEMENT_3D ( 'NONE', #166, #206, #65 ) ;
#120 = VECTOR ( 'NONE', #159, 1000.000000000000000 ) ;
#121 = PRODUCT_DEFINITION_CONTEXT ( 'detailed design', #73, 'design' ) ;
#122 = DIRECTION ( 'NONE',  ( 0.000000000000000000, 0.000000000000000000, 1.000000000000000000 ) ) ;
#123 = CARTESIAN_POINT ( 'NONE',  ( 0.000000000000000000, 0.000000000000000000, 1.000000000000000888 ) ) ;
#124 = DIRECTION ( 'NONE',  ( 0.000000000000000000, 0.000000000000000000, -1.000000000000000000 ) ) ;
#125 = CARTESIAN_POINT ( 'NONE',  ( 0.000000000000000000, 0.000000000000000000, 100.0000000000000000 ) ) ;
#126 = MANIFOLD_SOLID_BREP ( 'Congé1', #210 ) ;
#127 = ORIENTED_EDGE ( 'NONE', *, *, #197, .T. ) ;
#128 = DIRECTION ( 'NONE',  ( 0.000000000000000000, -1.000000000000000000, 0.000000000000000000 ) ) ;
#129 = CARTESIAN_POINT ( 'NONE',  ( 1.950000000000000844, 0.000000000000000000, 1.000000000000000888 ) ) ;
#130 = CIRCLE ( 'NONE', #48, 1.000000000000000000 ) ;
#131 = ORIENTED_EDGE ( 'NONE', *, *, #118, .F. ) ;
#132 = DIRECTION ( 'NONE',  ( -0.000000000000000000, -0.000000000000000000, -1.000000000000000000 ) ) ;
#133 = ORIENTED_EDGE ( 'NONE', *, *, #157, .F. ) ;
#134 = FACE_OUTER_BOUND ( 'NONE', #218, .T. ) ;
#135 = DIRECTION ( 'NONE',  ( 1.000000000000000000, 0.000000000000000000, 0.000000000000000000 ) ) ;
#136 = CARTESIAN_POINT ( 'NONE',  ( 0.000000000000000000, 0.000000000000000000, 1.000000000000000888 ) ) ;
#137 = PRODUCT_DEFINITION_FORMATION_WITH_SPECIFIED_SOURCE ( 'ANY', '', #107, .NOT_KNOWN. ) ;
#138 = FILL_AREA_STYLE ('',( #143 ) ) ;
#139 = EDGE_CURVE ( 'NONE', #110, #26, #34, .T. ) ;
#140 = CIRCLE ( 'NONE', #58, 1.950000000000000844 ) ;
#141 = CARTESIAN_POINT ( 'NONE',  ( -2.950000000000000622, 0.000000000000000000, 99.00000000000000000 ) ) ;
#142 = PRESENTATION_STYLE_ASSIGNMENT (( #212 ) ) ;
#143 = FILL_AREA_STYLE_COLOUR ( '', #99 ) ;
#144 = EDGE_LOOP ( 'NONE', ( #133, #51, #9, #183 ) ) ;
#145 = FACE_OUTER_BOUND ( 'NONE', #69, .T. ) ;
#146 = DIRECTION ( 'NONE',  ( 0.000000000000000000, 0.000000000000000000, -1.000000000000000000 ) ) ;
#147 = DIRECTION ( 'NONE',  ( 1.000000000000000000, 0.000000000000000000, 0.000000000000000000 ) ) ;
#148 = APPLICATION_PROTOCOL_DEFINITION ( 'draft international standard', 'automotive_design', 1998, #73 ) ;
#149 = CARTESIAN_POINT ( 'NONE',  ( 1.950000000000000844, 0.000000000000000000, 0.000000000000000000 ) ) ;
#150 = FACE_OUTER_BOUND ( 'NONE', #93, .T. ) ;
#151 = ADVANCED_FACE ( 'NONE', ( #82 ), #59, .T. ) ;
#152 = DIRECTION ( 'NONE',  ( 0.000000000000000000, 0.000000000000000000, 1.000000000000000000 ) ) ;
#153 = AXIS2_PLACEMENT_3D ( 'NONE', #125, #122, #147 ) ;
#154 = CIRCLE ( 'NONE', #49, 2.950000000000000622 ) ;
#155 = PRODUCT_DEFINITION ( 'UNKNOWN', '', #137, #121 ) ;
#156 = VERTEX_POINT ( 'NONE', #11 ) ;
#157 = EDGE_CURVE ( 'NONE', #112, #204, #63, .T. ) ;
#158 =( LENGTH_UNIT ( ) NAMED_UNIT ( * ) SI_UNIT ( .MILLI., .METRE. ) );
#159 = DIRECTION ( 'NONE',  ( -0.000000000000000000, -0.000000000000000000, -1.000000000000000000 ) ) ;
#160 = CIRCLE ( 'NONE', #153, 1.950000000000000844 ) ;
#161 = EDGE_LOOP ( 'NONE', ( #127, #44 ) ) ;
#162 = DIRECTION ( 'NONE',  ( -1.000000000000000000, 0.000000000000000000, 0.000000000000000000 ) ) ;
#163 = UNCERTAINTY_MEASURE_WITH_UNIT (LENGTH_MEASURE( 1.000000000000000082E-05 ), #158, 'distance_accuracy_value', 'NONE');
#164 = DIRECTION ( 'NONE',  ( 0.000000000000000000, 0.000000000000000000, 1.000000000000000000 ) ) ;
#165 = DIRECTION ( 'NONE',  ( -0.000000000000000000, -0.000000000000000000, -1.000000000000000000 ) ) ;
#166 = CARTESIAN_POINT ( 'NONE',  ( 0.000000000000000000, 0.000000000000000000, 99.00000000000000000 ) ) ;
#167 = ORIENTED_EDGE ( 'NONE', *, *, #157, .T. ) ;
#168 = EDGE_CURVE ( 'NONE', #156, #55, #86, .T. ) ;
#169 = ORIENTED_EDGE ( 'NONE', *, *, #228, .T. ) ;
#170 = DIRECTION ( 'NONE',  ( 1.224646799147353207E-16, 1.000000000000000000, -0.000000000000000000 ) ) ;
#171 = AXIS2_PLACEMENT_3D ( 'NONE', #175, #19, #50 ) ;
#172 = APPLICATION_CONTEXT ( 'automotive_design' ) ;
#173 = ORIENTED_EDGE ( 'NONE', *, *, #43, .T. ) ;
#174 = SURFACE_SIDE_STYLE ('',( #32 ) ) ;
#175 = CARTESIAN_POINT ( 'NONE',  ( 0.000000000000000000, 0.000000000000000000, 0.000000000000000000 ) ) ;
#176 = CARTESIAN_POINT ( 'NONE',  ( 0.000000000000000000, 0.000000000000000000, 0.000000000000000000 ) ) ;
#177 = CARTESIAN_POINT ( 'NONE',  ( 0.000000000000000000, 0.000000000000000000, 100.0000000000000000 ) ) ;
#178 = VERTEX_POINT ( 'NONE', #10 ) ;
#179 =( NAMED_UNIT ( * ) PLANE_ANGLE_UNIT ( ) SI_UNIT ( $, .RADIAN. ) );
#180 = CARTESIAN_POINT ( 'NONE',  ( 0.000000000000000000, 0.000000000000000000, 99.00000000000000000 ) ) ;
#181 = CARTESIAN_POINT ( 'NONE',  ( 0.000000000000000000, 0.000000000000000000, 100.0000000000000000 ) ) ;
#182 = EDGE_CURVE ( 'NONE', #110, #156, #54, .T. ) ;
#183 = ORIENTED_EDGE ( 'NONE', *, *, #102, .F. ) ;
#184 = ADVANCED_BREP_SHAPE_REPRESENTATION ( 'Pi\X2\00e8\X0\ce2', ( #126, #14 ), #97 ) ;
#185 = DIRECTION ( 'NONE',  ( 1.000000000000000000, 0.000000000000000000, 0.000000000000000000 ) ) ;
#186 = CIRCLE ( 'NONE', #17, 1.950000000000000844 ) ;
#187 = EDGE_CURVE ( 'NONE', #204, #112, #21, .T. ) ;
#188 = AXIS2_PLACEMENT_3D ( 'NONE', #136, #45, #117 ) ;
#189 = ORIENTED_EDGE ( 'NONE', *, *, #105, .T. ) ;
#190 =( NAMED_UNIT ( * ) PLANE_ANGLE_UNIT ( ) SI_UNIT ( $, .RADIAN. ) );
#191 = AXIS2_PLACEMENT_3D ( 'NONE', #180, #7, #208 ) ;
#192 = CARTESIAN_POINT ( 'NONE',  ( -1.950000000000000844, 2.388061258337340122E-16, 1.000000000000000888 ) ) ;
#193 = CARTESIAN_POINT ( 'NONE',  ( 0.000000000000000000, 0.000000000000000000, 1.000000000000000888 ) ) ;
#194 = EDGE_LOOP ( 'NONE', ( #167, #189, #25, #213 ) ) ;
#195 = CARTESIAN_POINT ( 'NONE',  ( 2.950000000000000622, 3.612708057484692590E-16, 1.000000000000000888 ) ) ;
#196 = CARTESIAN_POINT ( 'NONE',  ( 2.950000000000000622, 3.612708057484692590E-16, 99.00000000000000000 ) ) ;
#197 = EDGE_CURVE ( 'NONE', #178, #87, #160, .T. ) ;
#198 = ORIENTED_EDGE ( 'NONE', *, *, #228, .F. ) ;
#199 = DIRECTION ( 'NONE',  ( 0.000000000000000000, 0.000000000000000000, 1.000000000000000000 ) ) ;
#200 = DIRECTION ( 'NONE',  ( 0.000000000000000000, -1.000000000000000000, 0.000000000000000000 ) ) ;
#201 = AXIS2_PLACEMENT_3D ( 'NONE', #193, #152, #77 ) ;
#202 = CARTESIAN_POINT ( 'NONE',  ( 0.000000000000000000, 0.000000000000000000, 99.00000000000000000 ) ) ;
#203 = CARTESIAN_POINT ( 'NONE',  ( 0.000000000000000000, 0.000000000000000000, 0.000000000000000000 ) ) ;
#204 = VERTEX_POINT ( 'NONE', #196 ) ;
#205 = CARTESIAN_POINT ( 'NONE',  ( -2.950000000000000622, 0.000000000000000000, 100.0000000000000000 ) ) ;
#206 = DIRECTION ( 'NONE',  ( -0.000000000000000000, -0.000000000000000000, -1.000000000000000000 ) ) ;
#207 = PRESENTATION_LAYER_ASSIGNMENT (  '', '', ( #42 ) ) ;
#208 = DIRECTION ( 'NONE',  ( 1.000000000000000000, 0.000000000000000000, 0.000000000000000000 ) ) ;
#209 = TOROIDAL_SURFACE ( 'NONE', #80, 1.950000000000000844, 1.000000000000000000 ) ;
#210 = CLOSED_SHELL ( 'NONE', ( #98, #151, #12, #79, #223, #29, #18, #15 ) ) ;
#211 = DIRECTION ( 'NONE',  ( 1.000000000000000000, 0.000000000000000000, 0.000000000000000000 ) ) ;
#212 = SURFACE_STYLE_USAGE ( .BOTH. , #174 ) ;
#213 = ORIENTED_EDGE ( 'NONE', *, *, #43, .F. ) ;
#214 = LINE ( 'NONE', #205, #120 ) ;
#215 = AXIS2_PLACEMENT_3D ( 'NONE', #27, #22, #92 ) ;
#216 = DIRECTION ( 'NONE',  ( -0.000000000000000000, -0.000000000000000000, -1.000000000000000000 ) ) ;
#217 = FACE_OUTER_BOUND ( 'NONE', #194, .T. ) ;
#218 = EDGE_LOOP ( 'NONE', ( #24, #75 ) ) ;
#219 = AXIS2_PLACEMENT_3D ( 'NONE', #6, #128, #146 ) ;
#220 = AXIS2_PLACEMENT_3D ( 'NONE', #192, #170, #114 ) ;
#221 =( GEOMETRIC_REPRESENTATION_CONTEXT ( 3 ) GLOBAL_UNCERTAINTY_ASSIGNED_CONTEXT ( ( #163 ) ) GLOBAL_UNIT_ASSIGNED_CONTEXT ( ( #158, #190, #227 ) ) REPRESENTATION_CONTEXT ( 'NONE', 'WORKASPACE' ) );
#222 = CARTESIAN_POINT ( 'NONE',  ( 0.000000000000000000, 0.000000000000000000, 99.00000000000000000 ) ) ;
#223 = ADVANCED_FACE ( 'NONE', ( #31 ), #23, .T. ) ;
#224 = TOROIDAL_SURFACE ( 'NONE', #191, 1.950000000000000844, 1.000000000000000000 ) ;
#225 = ORIENTED_EDGE ( 'NONE', *, *, #139, .F. ) ;
#226 = AXIS2_PLACEMENT_3D ( 'NONE', #222, #60, #135 ) ;
#227 =( NAMED_UNIT ( * ) SI_UNIT ( $, .STERADIAN. ) SOLID_ANGLE_UNIT ( ) );
#228 = EDGE_CURVE ( 'NONE', #26, #55, #130, .T. ) ;
#229 = CIRCLE ( 'NONE', #219, 1.000000000000000888 ) ;
ENDSEC;
END-ISO-10303-21;
