ISO-10303-21;
HEADER;
/* Generated by software containing ST-Developer
 * from STEP Tools, Inc. (www.steptools.com) 
 */

FILE_DESCRIPTION(
/* description */ (''),
/* implementation_level */ '2;1');

FILE_NAME(
/* name */ 'silent v3.step',
/* time_stamp */ '2023-07-26T11:35:37+02:00',
/* author */ (''),
/* organization */ (''),
/* preprocessor_version */ 'ST-DEVELOPER v19.2',
/* originating_system */ 'Autodesk Translation Framework v12.6.0.85',
/* authorisation */ '');

FILE_SCHEMA (('AUTOMOTIVE_DESIGN { 1 0 10303 214 3 1 1 }'));
ENDSEC;

DATA;
#10=MECHANICAL_DESIGN_GEOMETRIC_PRESENTATION_REPRESENTATION('',(#13),#175);
#11=SHAPE_REPRESENTATION_RELATIONSHIP('SRR','None',#182,#12);
#12=ADVANCED_BREP_SHAPE_REPRESENTATION('',(#14),#174);
#13=STYLED_ITEM('',(#192),#14);
#14=MANIFOLD_SOLID_BREP('entretoise',#93);
#15=FACE_BOUND('',#30,.T.);
#16=FACE_BOUND('',#33,.T.);
#17=PLANE('',#112);
#18=PLANE('',#116);
#19=CYLINDRICAL_SURFACE('',#110,6.65);
#20=CYLINDRICAL_SURFACE('',#118,9.7);
#21=FACE_OUTER_BOUND('',#27,.T.);
#22=FACE_OUTER_BOUND('',#28,.T.);
#23=FACE_OUTER_BOUND('',#29,.T.);
#24=FACE_OUTER_BOUND('',#31,.T.);
#25=FACE_OUTER_BOUND('',#32,.T.);
#26=FACE_OUTER_BOUND('',#34,.T.);
#27=EDGE_LOOP('',(#65,#66,#67,#68));
#28=EDGE_LOOP('',(#69,#70,#71,#72));
#29=EDGE_LOOP('',(#73));
#30=EDGE_LOOP('',(#74));
#31=EDGE_LOOP('',(#75,#76,#77,#78));
#32=EDGE_LOOP('',(#79));
#33=EDGE_LOOP('',(#80));
#34=EDGE_LOOP('',(#81,#82,#83,#84));
#35=LINE('',#154,#39);
#36=LINE('',#159,#40);
#37=LINE('',#166,#41);
#38=LINE('',#171,#42);
#39=VECTOR('',#125,7.15);
#40=VECTOR('',#132,6.65);
#41=VECTOR('',#141,7.15);
#42=VECTOR('',#148,9.7);
#43=CIRCLE('',#108,6.65);
#44=CIRCLE('',#109,7.65);
#45=CIRCLE('',#111,6.65);
#46=CIRCLE('',#113,9.7);
#47=CIRCLE('',#115,7.65);
#48=CIRCLE('',#117,9.7);
#49=VERTEX_POINT('',#151);
#50=VERTEX_POINT('',#153);
#51=VERTEX_POINT('',#157);
#52=VERTEX_POINT('',#161);
#53=VERTEX_POINT('',#164);
#54=VERTEX_POINT('',#168);
#55=EDGE_CURVE('',#49,#49,#43,.T.);
#56=EDGE_CURVE('',#49,#50,#35,.T.);
#57=EDGE_CURVE('',#50,#50,#44,.T.);
#58=EDGE_CURVE('',#51,#51,#45,.T.);
#59=EDGE_CURVE('',#51,#49,#36,.T.);
#60=EDGE_CURVE('',#52,#52,#46,.T.);
#61=EDGE_CURVE('',#53,#53,#47,.T.);
#62=EDGE_CURVE('',#53,#51,#37,.T.);
#63=EDGE_CURVE('',#54,#54,#48,.T.);
#64=EDGE_CURVE('',#54,#52,#38,.T.);
#65=ORIENTED_EDGE('',*,*,#55,.T.);
#66=ORIENTED_EDGE('',*,*,#56,.T.);
#67=ORIENTED_EDGE('',*,*,#57,.T.);
#68=ORIENTED_EDGE('',*,*,#56,.F.);
#69=ORIENTED_EDGE('',*,*,#58,.F.);
#70=ORIENTED_EDGE('',*,*,#59,.T.);
#71=ORIENTED_EDGE('',*,*,#55,.F.);
#72=ORIENTED_EDGE('',*,*,#59,.F.);
#73=ORIENTED_EDGE('',*,*,#60,.F.);
#74=ORIENTED_EDGE('',*,*,#57,.F.);
#75=ORIENTED_EDGE('',*,*,#61,.T.);
#76=ORIENTED_EDGE('',*,*,#62,.T.);
#77=ORIENTED_EDGE('',*,*,#58,.T.);
#78=ORIENTED_EDGE('',*,*,#62,.F.);
#79=ORIENTED_EDGE('',*,*,#63,.T.);
#80=ORIENTED_EDGE('',*,*,#61,.F.);
#81=ORIENTED_EDGE('',*,*,#63,.F.);
#82=ORIENTED_EDGE('',*,*,#64,.T.);
#83=ORIENTED_EDGE('',*,*,#60,.T.);
#84=ORIENTED_EDGE('',*,*,#64,.F.);
#85=CONICAL_SURFACE('',#107,7.15,0.785398163397448);
#86=CONICAL_SURFACE('',#114,7.15,0.785398163397448);
#87=ADVANCED_FACE('',(#21),#85,.F.);
#88=ADVANCED_FACE('',(#22),#19,.F.);
#89=ADVANCED_FACE('',(#23,#15),#17,.F.);
#90=ADVANCED_FACE('',(#24),#86,.F.);
#91=ADVANCED_FACE('',(#25,#16),#18,.T.);
#92=ADVANCED_FACE('',(#26),#20,.T.);
#93=CLOSED_SHELL('',(#87,#88,#89,#90,#91,#92));
#94=DERIVED_UNIT_ELEMENT(#96,1.);
#95=DERIVED_UNIT_ELEMENT(#177,-3.);
#96=(
MASS_UNIT()
NAMED_UNIT(*)
SI_UNIT(.KILO.,.GRAM.)
);
#97=DERIVED_UNIT((#94,#95));
#98=MEASURE_REPRESENTATION_ITEM('density measure',
POSITIVE_RATIO_MEASURE(7850.),#97);
#99=PROPERTY_DEFINITION_REPRESENTATION(#104,#101);
#100=PROPERTY_DEFINITION_REPRESENTATION(#105,#102);
#101=REPRESENTATION('material name',(#103),#174);
#102=REPRESENTATION('density',(#98),#174);
#103=DESCRIPTIVE_REPRESENTATION_ITEM('Acier','Acier');
#104=PROPERTY_DEFINITION('material property','material name',#184);
#105=PROPERTY_DEFINITION('material property','density of part',#184);
#106=AXIS2_PLACEMENT_3D('',#149,#119,#120);
#107=AXIS2_PLACEMENT_3D('',#150,#121,#122);
#108=AXIS2_PLACEMENT_3D('',#152,#123,#124);
#109=AXIS2_PLACEMENT_3D('',#155,#126,#127);
#110=AXIS2_PLACEMENT_3D('',#156,#128,#129);
#111=AXIS2_PLACEMENT_3D('',#158,#130,#131);
#112=AXIS2_PLACEMENT_3D('',#160,#133,#134);
#113=AXIS2_PLACEMENT_3D('',#162,#135,#136);
#114=AXIS2_PLACEMENT_3D('',#163,#137,#138);
#115=AXIS2_PLACEMENT_3D('',#165,#139,#140);
#116=AXIS2_PLACEMENT_3D('',#167,#142,#143);
#117=AXIS2_PLACEMENT_3D('',#169,#144,#145);
#118=AXIS2_PLACEMENT_3D('',#170,#146,#147);
#119=DIRECTION('axis',(0.,0.,1.));
#120=DIRECTION('refdir',(1.,0.,0.));
#121=DIRECTION('center_axis',(0.,0.,-1.));
#122=DIRECTION('ref_axis',(1.,0.,0.));
#123=DIRECTION('center_axis',(0.,0.,1.));
#124=DIRECTION('ref_axis',(1.,0.,0.));
#125=DIRECTION('',(-0.707106781186547,-8.65956056235493E-17,-0.707106781186548));
#126=DIRECTION('center_axis',(0.,0.,-1.));
#127=DIRECTION('ref_axis',(1.,0.,0.));
#128=DIRECTION('center_axis',(0.,0.,1.));
#129=DIRECTION('ref_axis',(1.,0.,0.));
#130=DIRECTION('center_axis',(0.,0.,-1.));
#131=DIRECTION('ref_axis',(1.,0.,0.));
#132=DIRECTION('',(0.,0.,-1.));
#133=DIRECTION('center_axis',(0.,0.,1.));
#134=DIRECTION('ref_axis',(1.,0.,0.));
#135=DIRECTION('center_axis',(0.,0.,1.));
#136=DIRECTION('ref_axis',(1.,0.,0.));
#137=DIRECTION('center_axis',(0.,0.,1.));
#138=DIRECTION('ref_axis',(1.,0.,0.));
#139=DIRECTION('center_axis',(0.,0.,1.));
#140=DIRECTION('ref_axis',(1.,0.,0.));
#141=DIRECTION('',(0.707106781186547,8.65956056235493E-17,-0.707106781186548));
#142=DIRECTION('center_axis',(0.,0.,1.));
#143=DIRECTION('ref_axis',(1.,0.,0.));
#144=DIRECTION('center_axis',(0.,0.,1.));
#145=DIRECTION('ref_axis',(1.,0.,0.));
#146=DIRECTION('center_axis',(0.,0.,1.));
#147=DIRECTION('ref_axis',(1.,0.,0.));
#148=DIRECTION('',(0.,0.,-1.));
#149=CARTESIAN_POINT('',(0.,0.,0.));
#150=CARTESIAN_POINT('Origin',(0.,0.,0.5));
#151=CARTESIAN_POINT('',(-6.65,-8.1439012143299E-16,1.));
#152=CARTESIAN_POINT('Origin',(0.,0.,1.));
#153=CARTESIAN_POINT('',(-7.65,9.36854801347725E-16,0.));
#154=CARTESIAN_POINT('',(-7.15,-8.75622461390358E-16,0.5));
#155=CARTESIAN_POINT('Origin',(0.,0.,0.));
#156=CARTESIAN_POINT('Origin',(0.,0.,0.));
#157=CARTESIAN_POINT('',(-6.65,8.1439012143299E-16,37.));
#158=CARTESIAN_POINT('Origin',(0.,0.,37.));
#159=CARTESIAN_POINT('',(-6.65,-8.1439012143299E-16,0.));
#160=CARTESIAN_POINT('Origin',(0.,0.,0.));
#161=CARTESIAN_POINT('',(-9.7,-1.18790739517293E-15,0.));
#162=CARTESIAN_POINT('Origin',(0.,0.,0.));
#163=CARTESIAN_POINT('Origin',(0.,0.,37.5));
#164=CARTESIAN_POINT('',(-7.65,-9.36854801347725E-16,38.));
#165=CARTESIAN_POINT('Origin',(0.,0.,38.));
#166=CARTESIAN_POINT('',(-7.15,-8.75622461390358E-16,37.5));
#167=CARTESIAN_POINT('Origin',(0.,0.,38.));
#168=CARTESIAN_POINT('',(-9.7,-1.18790739517293E-15,38.));
#169=CARTESIAN_POINT('Origin',(0.,0.,38.));
#170=CARTESIAN_POINT('Origin',(0.,0.,0.));
#171=CARTESIAN_POINT('',(-9.7,-1.18790739517293E-15,0.));
#172=UNCERTAINTY_MEASURE_WITH_UNIT(LENGTH_MEASURE(0.01),#176,
'DISTANCE_ACCURACY_VALUE',
'Maximum model space distance between geometric entities at asserted c
onnectivities');
#173=UNCERTAINTY_MEASURE_WITH_UNIT(LENGTH_MEASURE(0.01),#176,
'DISTANCE_ACCURACY_VALUE',
'Maximum model space distance between geometric entities at asserted c
onnectivities');
#174=(
GEOMETRIC_REPRESENTATION_CONTEXT(3)
GLOBAL_UNCERTAINTY_ASSIGNED_CONTEXT((#172))
GLOBAL_UNIT_ASSIGNED_CONTEXT((#176,#178,#179))
REPRESENTATION_CONTEXT('','3D')
);
#175=(
GEOMETRIC_REPRESENTATION_CONTEXT(3)
GLOBAL_UNCERTAINTY_ASSIGNED_CONTEXT((#173))
GLOBAL_UNIT_ASSIGNED_CONTEXT((#176,#178,#179))
REPRESENTATION_CONTEXT('','3D')
);
#176=(
LENGTH_UNIT()
NAMED_UNIT(*)
SI_UNIT(.MILLI.,.METRE.)
);
#177=(
LENGTH_UNIT()
NAMED_UNIT(*)
SI_UNIT($,.METRE.)
);
#178=(
NAMED_UNIT(*)
PLANE_ANGLE_UNIT()
SI_UNIT($,.RADIAN.)
);
#179=(
NAMED_UNIT(*)
SI_UNIT($,.STERADIAN.)
SOLID_ANGLE_UNIT()
);
#180=SHAPE_DEFINITION_REPRESENTATION(#181,#182);
#181=PRODUCT_DEFINITION_SHAPE('',$,#184);
#182=SHAPE_REPRESENTATION('',(#106),#174);
#183=PRODUCT_DEFINITION_CONTEXT('part definition',#188,'design');
#184=PRODUCT_DEFINITION('silent','silent v3',#185,#183);
#185=PRODUCT_DEFINITION_FORMATION('',$,#190);
#186=PRODUCT_RELATED_PRODUCT_CATEGORY('silent v3','silent v3',(#190));
#187=APPLICATION_PROTOCOL_DEFINITION('international standard',
'automotive_design',2009,#188);
#188=APPLICATION_CONTEXT(
'Core Data for Automotive Mechanical Design Process');
#189=PRODUCT_CONTEXT('part definition',#188,'mechanical');
#190=PRODUCT('silent','silent v3',$,(#189));
#191=PRESENTATION_STYLE_ASSIGNMENT((#194));
#192=PRESENTATION_STYLE_ASSIGNMENT((#195));
#193=PRESENTATION_STYLE_ASSIGNMENT((#196));
#194=SURFACE_STYLE_USAGE(.BOTH.,#197);
#195=SURFACE_STYLE_USAGE(.BOTH.,#198);
#196=SURFACE_STYLE_USAGE(.BOTH.,#199);
#197=SURFACE_SIDE_STYLE('',(#200));
#198=SURFACE_SIDE_STYLE('',(#201));
#199=SURFACE_SIDE_STYLE('',(#202));
#200=SURFACE_STYLE_FILL_AREA(#203);
#201=SURFACE_STYLE_FILL_AREA(#204);
#202=SURFACE_STYLE_FILL_AREA(#205);
#203=FILL_AREA_STYLE('Acier - Satin\X\E9',(#206));
#204=FILL_AREA_STYLE('Aluminium - Anodis\X\E9 brillant (gris)',(#207));
#205=FILL_AREA_STYLE('Nylon 12 (avec l''imprimante 3D Formlabs Fuse 1)',
(#208));
#206=FILL_AREA_STYLE_COLOUR('Acier - Satin\X\E9',#209);
#207=FILL_AREA_STYLE_COLOUR('Aluminium - Anodis\X\E9 brillant (gris)',#210);
#208=FILL_AREA_STYLE_COLOUR(
'Nylon 12 (avec l''imprimante 3D Formlabs Fuse 1)',#211);
#209=COLOUR_RGB('Acier - Satin\X\E9',0.627450980392157,0.627450980392157,
0.627450980392157);
#210=COLOUR_RGB('Aluminium - Anodis\X\E9 brillant (gris)',0.537254901960784,
0.537254901960784,0.537254901960784);
#211=COLOUR_RGB('Nylon 12 (avec l''imprimante 3D Formlabs Fuse 1)',0.247058823529412,
0.247058823529412,0.247058823529412);
ENDSEC;
END-ISO-10303-21;
