ISO-10303-21;
HEADER;
/* Generated by software containing ST-Developer
 * from STEP Tools, Inc. (www.steptools.com) 
 */

FILE_DESCRIPTION(
/* description */ (''),
/* implementation_level */ '2;1');

FILE_NAME(
/* name */ 'Plaque support imprimant 3D v1.step',
/* time_stamp */ '2023-06-23T20:40:44+02:00',
/* author */ (''),
/* organization */ (''),
/* preprocessor_version */ 'ST-DEVELOPER v19.2',
/* originating_system */ 'Autodesk Translation Framework v12.6.0.85',
/* authorisation */ '');

FILE_SCHEMA (('AUTOMOTIVE_DESIGN { 1 0 10303 214 3 1 1 }'));
ENDSEC;

DATA;
#10=MECHANICAL_DESIGN_GEOMETRIC_PRESENTATION_REPRESENTATION('',(#13),#690);
#11=SHAPE_REPRESENTATION_RELATIONSHIP('SRR','None',#697,#12);
#12=ADVANCED_BREP_SHAPE_REPRESENTATION('',(#14),#689);
#13=STYLED_ITEM('',(#706),#14);
#14=MANIFOLD_SOLID_BREP('Corps1',#406);
#15=FACE_BOUND('',#84,.T.);
#16=FACE_BOUND('',#85,.T.);
#17=FACE_BOUND('',#86,.T.);
#18=FACE_BOUND('',#87,.T.);
#19=FACE_BOUND('',#88,.T.);
#20=FACE_BOUND('',#89,.T.);
#21=FACE_BOUND('',#90,.T.);
#22=FACE_BOUND('',#91,.T.);
#23=FACE_BOUND('',#92,.T.);
#24=FACE_BOUND('',#93,.T.);
#25=FACE_BOUND('',#94,.T.);
#26=FACE_BOUND('',#95,.T.);
#27=FACE_BOUND('',#96,.T.);
#28=FACE_BOUND('',#98,.T.);
#29=FACE_BOUND('',#99,.T.);
#30=FACE_BOUND('',#100,.T.);
#31=FACE_BOUND('',#101,.T.);
#32=FACE_BOUND('',#102,.T.);
#33=FACE_BOUND('',#103,.T.);
#34=FACE_BOUND('',#104,.T.);
#35=FACE_BOUND('',#105,.T.);
#36=FACE_BOUND('',#106,.T.);
#37=FACE_BOUND('',#107,.T.);
#38=FACE_BOUND('',#108,.T.);
#39=FACE_BOUND('',#109,.T.);
#40=FACE_BOUND('',#110,.T.);
#41=PLANE('',#459);
#42=PLANE('',#460);
#43=PLANE('',#461);
#44=PLANE('',#462);
#45=PLANE('',#463);
#46=PLANE('',#464);
#47=FACE_OUTER_BOUND('',#66,.T.);
#48=FACE_OUTER_BOUND('',#67,.T.);
#49=FACE_OUTER_BOUND('',#68,.T.);
#50=FACE_OUTER_BOUND('',#69,.T.);
#51=FACE_OUTER_BOUND('',#70,.T.);
#52=FACE_OUTER_BOUND('',#71,.T.);
#53=FACE_OUTER_BOUND('',#72,.T.);
#54=FACE_OUTER_BOUND('',#73,.T.);
#55=FACE_OUTER_BOUND('',#74,.T.);
#56=FACE_OUTER_BOUND('',#75,.T.);
#57=FACE_OUTER_BOUND('',#76,.T.);
#58=FACE_OUTER_BOUND('',#77,.T.);
#59=FACE_OUTER_BOUND('',#78,.T.);
#60=FACE_OUTER_BOUND('',#79,.T.);
#61=FACE_OUTER_BOUND('',#80,.T.);
#62=FACE_OUTER_BOUND('',#81,.T.);
#63=FACE_OUTER_BOUND('',#82,.T.);
#64=FACE_OUTER_BOUND('',#83,.T.);
#65=FACE_OUTER_BOUND('',#97,.T.);
#66=EDGE_LOOP('',(#272,#273,#274,#275));
#67=EDGE_LOOP('',(#276,#277,#278,#279));
#68=EDGE_LOOP('',(#280,#281,#282,#283));
#69=EDGE_LOOP('',(#284,#285,#286,#287));
#70=EDGE_LOOP('',(#288,#289,#290,#291));
#71=EDGE_LOOP('',(#292,#293,#294,#295));
#72=EDGE_LOOP('',(#296,#297,#298,#299));
#73=EDGE_LOOP('',(#300,#301,#302,#303));
#74=EDGE_LOOP('',(#304,#305,#306,#307));
#75=EDGE_LOOP('',(#308,#309,#310,#311));
#76=EDGE_LOOP('',(#312,#313,#314,#315));
#77=EDGE_LOOP('',(#316,#317,#318,#319));
#78=EDGE_LOOP('',(#320,#321,#322,#323));
#79=EDGE_LOOP('',(#324,#325,#326,#327));
#80=EDGE_LOOP('',(#328,#329,#330,#331));
#81=EDGE_LOOP('',(#332,#333,#334,#335));
#82=EDGE_LOOP('',(#336,#337,#338,#339));
#83=EDGE_LOOP('',(#340,#341,#342,#343));
#84=EDGE_LOOP('',(#344));
#85=EDGE_LOOP('',(#345));
#86=EDGE_LOOP('',(#346));
#87=EDGE_LOOP('',(#347));
#88=EDGE_LOOP('',(#348));
#89=EDGE_LOOP('',(#349));
#90=EDGE_LOOP('',(#350));
#91=EDGE_LOOP('',(#351));
#92=EDGE_LOOP('',(#352));
#93=EDGE_LOOP('',(#353));
#94=EDGE_LOOP('',(#354));
#95=EDGE_LOOP('',(#355));
#96=EDGE_LOOP('',(#356));
#97=EDGE_LOOP('',(#357,#358,#359,#360));
#98=EDGE_LOOP('',(#361));
#99=EDGE_LOOP('',(#362));
#100=EDGE_LOOP('',(#363));
#101=EDGE_LOOP('',(#364));
#102=EDGE_LOOP('',(#365));
#103=EDGE_LOOP('',(#366));
#104=EDGE_LOOP('',(#367));
#105=EDGE_LOOP('',(#368));
#106=EDGE_LOOP('',(#369));
#107=EDGE_LOOP('',(#370));
#108=EDGE_LOOP('',(#371));
#109=EDGE_LOOP('',(#372));
#110=EDGE_LOOP('',(#373));
#111=LINE('',#587,#136);
#112=LINE('',#593,#137);
#113=LINE('',#599,#138);
#114=LINE('',#605,#139);
#115=LINE('',#611,#140);
#116=LINE('',#617,#141);
#117=LINE('',#623,#142);
#118=LINE('',#629,#143);
#119=LINE('',#635,#144);
#120=LINE('',#641,#145);
#121=LINE('',#647,#146);
#122=LINE('',#653,#147);
#123=LINE('',#659,#148);
#124=LINE('',#664,#149);
#125=LINE('',#666,#150);
#126=LINE('',#668,#151);
#127=LINE('',#669,#152);
#128=LINE('',#672,#153);
#129=LINE('',#674,#154);
#130=LINE('',#675,#155);
#131=LINE('',#678,#156);
#132=LINE('',#680,#157);
#133=LINE('',#681,#158);
#134=LINE('',#683,#159);
#135=LINE('',#684,#160);
#136=VECTOR('',#471,1.5);
#137=VECTOR('',#478,1.5);
#138=VECTOR('',#485,1.5);
#139=VECTOR('',#492,1.5);
#140=VECTOR('',#499,1.5);
#141=VECTOR('',#506,1.5);
#142=VECTOR('',#513,1.5);
#143=VECTOR('',#520,1.5);
#144=VECTOR('',#527,1.5);
#145=VECTOR('',#534,1.5);
#146=VECTOR('',#541,1.5);
#147=VECTOR('',#548,1.5);
#148=VECTOR('',#555,1.5);
#149=VECTOR('',#560,10.);
#150=VECTOR('',#561,10.);
#151=VECTOR('',#562,10.);
#152=VECTOR('',#563,10.);
#153=VECTOR('',#566,10.);
#154=VECTOR('',#567,10.);
#155=VECTOR('',#568,10.);
#156=VECTOR('',#571,10.);
#157=VECTOR('',#572,10.);
#158=VECTOR('',#573,10.);
#159=VECTOR('',#576,10.);
#160=VECTOR('',#577,10.);
#161=CIRCLE('',#421,1.5);
#162=CIRCLE('',#422,1.5);
#163=CIRCLE('',#424,1.5);
#164=CIRCLE('',#425,1.5);
#165=CIRCLE('',#427,1.5);
#166=CIRCLE('',#428,1.5);
#167=CIRCLE('',#430,1.5);
#168=CIRCLE('',#431,1.5);
#169=CIRCLE('',#433,1.5);
#170=CIRCLE('',#434,1.5);
#171=CIRCLE('',#436,1.5);
#172=CIRCLE('',#437,1.5);
#173=CIRCLE('',#439,1.5);
#174=CIRCLE('',#440,1.5);
#175=CIRCLE('',#442,1.5);
#176=CIRCLE('',#443,1.5);
#177=CIRCLE('',#445,1.5);
#178=CIRCLE('',#446,1.5);
#179=CIRCLE('',#448,1.5);
#180=CIRCLE('',#449,1.5);
#181=CIRCLE('',#451,1.5);
#182=CIRCLE('',#452,1.5);
#183=CIRCLE('',#454,1.5);
#184=CIRCLE('',#455,1.5);
#185=CIRCLE('',#457,1.5);
#186=CIRCLE('',#458,1.5);
#187=VERTEX_POINT('',#584);
#188=VERTEX_POINT('',#586);
#189=VERTEX_POINT('',#590);
#190=VERTEX_POINT('',#592);
#191=VERTEX_POINT('',#596);
#192=VERTEX_POINT('',#598);
#193=VERTEX_POINT('',#602);
#194=VERTEX_POINT('',#604);
#195=VERTEX_POINT('',#608);
#196=VERTEX_POINT('',#610);
#197=VERTEX_POINT('',#614);
#198=VERTEX_POINT('',#616);
#199=VERTEX_POINT('',#620);
#200=VERTEX_POINT('',#622);
#201=VERTEX_POINT('',#626);
#202=VERTEX_POINT('',#628);
#203=VERTEX_POINT('',#632);
#204=VERTEX_POINT('',#634);
#205=VERTEX_POINT('',#638);
#206=VERTEX_POINT('',#640);
#207=VERTEX_POINT('',#644);
#208=VERTEX_POINT('',#646);
#209=VERTEX_POINT('',#650);
#210=VERTEX_POINT('',#652);
#211=VERTEX_POINT('',#656);
#212=VERTEX_POINT('',#658);
#213=VERTEX_POINT('',#662);
#214=VERTEX_POINT('',#663);
#215=VERTEX_POINT('',#665);
#216=VERTEX_POINT('',#667);
#217=VERTEX_POINT('',#671);
#218=VERTEX_POINT('',#673);
#219=VERTEX_POINT('',#677);
#220=VERTEX_POINT('',#679);
#221=EDGE_CURVE('',#187,#187,#161,.T.);
#222=EDGE_CURVE('',#187,#188,#111,.T.);
#223=EDGE_CURVE('',#188,#188,#162,.T.);
#224=EDGE_CURVE('',#189,#189,#163,.T.);
#225=EDGE_CURVE('',#189,#190,#112,.T.);
#226=EDGE_CURVE('',#190,#190,#164,.T.);
#227=EDGE_CURVE('',#191,#191,#165,.T.);
#228=EDGE_CURVE('',#191,#192,#113,.T.);
#229=EDGE_CURVE('',#192,#192,#166,.T.);
#230=EDGE_CURVE('',#193,#193,#167,.T.);
#231=EDGE_CURVE('',#193,#194,#114,.T.);
#232=EDGE_CURVE('',#194,#194,#168,.T.);
#233=EDGE_CURVE('',#195,#195,#169,.T.);
#234=EDGE_CURVE('',#195,#196,#115,.T.);
#235=EDGE_CURVE('',#196,#196,#170,.T.);
#236=EDGE_CURVE('',#197,#197,#171,.T.);
#237=EDGE_CURVE('',#197,#198,#116,.T.);
#238=EDGE_CURVE('',#198,#198,#172,.T.);
#239=EDGE_CURVE('',#199,#199,#173,.T.);
#240=EDGE_CURVE('',#199,#200,#117,.T.);
#241=EDGE_CURVE('',#200,#200,#174,.T.);
#242=EDGE_CURVE('',#201,#201,#175,.T.);
#243=EDGE_CURVE('',#201,#202,#118,.T.);
#244=EDGE_CURVE('',#202,#202,#176,.T.);
#245=EDGE_CURVE('',#203,#203,#177,.T.);
#246=EDGE_CURVE('',#203,#204,#119,.T.);
#247=EDGE_CURVE('',#204,#204,#178,.T.);
#248=EDGE_CURVE('',#205,#205,#179,.T.);
#249=EDGE_CURVE('',#205,#206,#120,.T.);
#250=EDGE_CURVE('',#206,#206,#180,.T.);
#251=EDGE_CURVE('',#207,#207,#181,.T.);
#252=EDGE_CURVE('',#207,#208,#121,.T.);
#253=EDGE_CURVE('',#208,#208,#182,.T.);
#254=EDGE_CURVE('',#209,#209,#183,.T.);
#255=EDGE_CURVE('',#209,#210,#122,.T.);
#256=EDGE_CURVE('',#210,#210,#184,.T.);
#257=EDGE_CURVE('',#211,#211,#185,.T.);
#258=EDGE_CURVE('',#211,#212,#123,.T.);
#259=EDGE_CURVE('',#212,#212,#186,.T.);
#260=EDGE_CURVE('',#213,#214,#124,.T.);
#261=EDGE_CURVE('',#213,#215,#125,.T.);
#262=EDGE_CURVE('',#216,#215,#126,.T.);
#263=EDGE_CURVE('',#214,#216,#127,.T.);
#264=EDGE_CURVE('',#214,#217,#128,.T.);
#265=EDGE_CURVE('',#218,#216,#129,.T.);
#266=EDGE_CURVE('',#217,#218,#130,.T.);
#267=EDGE_CURVE('',#217,#219,#131,.T.);
#268=EDGE_CURVE('',#220,#218,#132,.T.);
#269=EDGE_CURVE('',#219,#220,#133,.T.);
#270=EDGE_CURVE('',#219,#213,#134,.T.);
#271=EDGE_CURVE('',#215,#220,#135,.T.);
#272=ORIENTED_EDGE('',*,*,#221,.F.);
#273=ORIENTED_EDGE('',*,*,#222,.T.);
#274=ORIENTED_EDGE('',*,*,#223,.T.);
#275=ORIENTED_EDGE('',*,*,#222,.F.);
#276=ORIENTED_EDGE('',*,*,#224,.F.);
#277=ORIENTED_EDGE('',*,*,#225,.T.);
#278=ORIENTED_EDGE('',*,*,#226,.T.);
#279=ORIENTED_EDGE('',*,*,#225,.F.);
#280=ORIENTED_EDGE('',*,*,#227,.F.);
#281=ORIENTED_EDGE('',*,*,#228,.T.);
#282=ORIENTED_EDGE('',*,*,#229,.T.);
#283=ORIENTED_EDGE('',*,*,#228,.F.);
#284=ORIENTED_EDGE('',*,*,#230,.F.);
#285=ORIENTED_EDGE('',*,*,#231,.T.);
#286=ORIENTED_EDGE('',*,*,#232,.T.);
#287=ORIENTED_EDGE('',*,*,#231,.F.);
#288=ORIENTED_EDGE('',*,*,#233,.F.);
#289=ORIENTED_EDGE('',*,*,#234,.T.);
#290=ORIENTED_EDGE('',*,*,#235,.T.);
#291=ORIENTED_EDGE('',*,*,#234,.F.);
#292=ORIENTED_EDGE('',*,*,#236,.F.);
#293=ORIENTED_EDGE('',*,*,#237,.T.);
#294=ORIENTED_EDGE('',*,*,#238,.T.);
#295=ORIENTED_EDGE('',*,*,#237,.F.);
#296=ORIENTED_EDGE('',*,*,#239,.F.);
#297=ORIENTED_EDGE('',*,*,#240,.T.);
#298=ORIENTED_EDGE('',*,*,#241,.T.);
#299=ORIENTED_EDGE('',*,*,#240,.F.);
#300=ORIENTED_EDGE('',*,*,#242,.F.);
#301=ORIENTED_EDGE('',*,*,#243,.T.);
#302=ORIENTED_EDGE('',*,*,#244,.T.);
#303=ORIENTED_EDGE('',*,*,#243,.F.);
#304=ORIENTED_EDGE('',*,*,#245,.F.);
#305=ORIENTED_EDGE('',*,*,#246,.T.);
#306=ORIENTED_EDGE('',*,*,#247,.T.);
#307=ORIENTED_EDGE('',*,*,#246,.F.);
#308=ORIENTED_EDGE('',*,*,#248,.F.);
#309=ORIENTED_EDGE('',*,*,#249,.T.);
#310=ORIENTED_EDGE('',*,*,#250,.T.);
#311=ORIENTED_EDGE('',*,*,#249,.F.);
#312=ORIENTED_EDGE('',*,*,#251,.F.);
#313=ORIENTED_EDGE('',*,*,#252,.T.);
#314=ORIENTED_EDGE('',*,*,#253,.T.);
#315=ORIENTED_EDGE('',*,*,#252,.F.);
#316=ORIENTED_EDGE('',*,*,#254,.F.);
#317=ORIENTED_EDGE('',*,*,#255,.T.);
#318=ORIENTED_EDGE('',*,*,#256,.T.);
#319=ORIENTED_EDGE('',*,*,#255,.F.);
#320=ORIENTED_EDGE('',*,*,#257,.F.);
#321=ORIENTED_EDGE('',*,*,#258,.T.);
#322=ORIENTED_EDGE('',*,*,#259,.T.);
#323=ORIENTED_EDGE('',*,*,#258,.F.);
#324=ORIENTED_EDGE('',*,*,#260,.F.);
#325=ORIENTED_EDGE('',*,*,#261,.T.);
#326=ORIENTED_EDGE('',*,*,#262,.F.);
#327=ORIENTED_EDGE('',*,*,#263,.F.);
#328=ORIENTED_EDGE('',*,*,#264,.F.);
#329=ORIENTED_EDGE('',*,*,#263,.T.);
#330=ORIENTED_EDGE('',*,*,#265,.F.);
#331=ORIENTED_EDGE('',*,*,#266,.F.);
#332=ORIENTED_EDGE('',*,*,#267,.F.);
#333=ORIENTED_EDGE('',*,*,#266,.T.);
#334=ORIENTED_EDGE('',*,*,#268,.F.);
#335=ORIENTED_EDGE('',*,*,#269,.F.);
#336=ORIENTED_EDGE('',*,*,#270,.F.);
#337=ORIENTED_EDGE('',*,*,#269,.T.);
#338=ORIENTED_EDGE('',*,*,#271,.F.);
#339=ORIENTED_EDGE('',*,*,#261,.F.);
#340=ORIENTED_EDGE('',*,*,#271,.T.);
#341=ORIENTED_EDGE('',*,*,#268,.T.);
#342=ORIENTED_EDGE('',*,*,#265,.T.);
#343=ORIENTED_EDGE('',*,*,#262,.T.);
#344=ORIENTED_EDGE('',*,*,#257,.T.);
#345=ORIENTED_EDGE('',*,*,#254,.T.);
#346=ORIENTED_EDGE('',*,*,#251,.T.);
#347=ORIENTED_EDGE('',*,*,#248,.T.);
#348=ORIENTED_EDGE('',*,*,#245,.T.);
#349=ORIENTED_EDGE('',*,*,#242,.T.);
#350=ORIENTED_EDGE('',*,*,#239,.T.);
#351=ORIENTED_EDGE('',*,*,#236,.T.);
#352=ORIENTED_EDGE('',*,*,#233,.T.);
#353=ORIENTED_EDGE('',*,*,#230,.T.);
#354=ORIENTED_EDGE('',*,*,#227,.T.);
#355=ORIENTED_EDGE('',*,*,#224,.T.);
#356=ORIENTED_EDGE('',*,*,#221,.T.);
#357=ORIENTED_EDGE('',*,*,#270,.T.);
#358=ORIENTED_EDGE('',*,*,#260,.T.);
#359=ORIENTED_EDGE('',*,*,#264,.T.);
#360=ORIENTED_EDGE('',*,*,#267,.T.);
#361=ORIENTED_EDGE('',*,*,#259,.F.);
#362=ORIENTED_EDGE('',*,*,#256,.F.);
#363=ORIENTED_EDGE('',*,*,#253,.F.);
#364=ORIENTED_EDGE('',*,*,#250,.F.);
#365=ORIENTED_EDGE('',*,*,#247,.F.);
#366=ORIENTED_EDGE('',*,*,#244,.F.);
#367=ORIENTED_EDGE('',*,*,#241,.F.);
#368=ORIENTED_EDGE('',*,*,#238,.F.);
#369=ORIENTED_EDGE('',*,*,#235,.F.);
#370=ORIENTED_EDGE('',*,*,#232,.F.);
#371=ORIENTED_EDGE('',*,*,#229,.F.);
#372=ORIENTED_EDGE('',*,*,#226,.F.);
#373=ORIENTED_EDGE('',*,*,#223,.F.);
#374=CYLINDRICAL_SURFACE('',#420,1.5);
#375=CYLINDRICAL_SURFACE('',#423,1.5);
#376=CYLINDRICAL_SURFACE('',#426,1.5);
#377=CYLINDRICAL_SURFACE('',#429,1.5);
#378=CYLINDRICAL_SURFACE('',#432,1.5);
#379=CYLINDRICAL_SURFACE('',#435,1.5);
#380=CYLINDRICAL_SURFACE('',#438,1.5);
#381=CYLINDRICAL_SURFACE('',#441,1.5);
#382=CYLINDRICAL_SURFACE('',#444,1.5);
#383=CYLINDRICAL_SURFACE('',#447,1.5);
#384=CYLINDRICAL_SURFACE('',#450,1.5);
#385=CYLINDRICAL_SURFACE('',#453,1.5);
#386=CYLINDRICAL_SURFACE('',#456,1.5);
#387=ADVANCED_FACE('',(#47),#374,.F.);
#388=ADVANCED_FACE('',(#48),#375,.F.);
#389=ADVANCED_FACE('',(#49),#376,.F.);
#390=ADVANCED_FACE('',(#50),#377,.F.);
#391=ADVANCED_FACE('',(#51),#378,.F.);
#392=ADVANCED_FACE('',(#52),#379,.F.);
#393=ADVANCED_FACE('',(#53),#380,.F.);
#394=ADVANCED_FACE('',(#54),#381,.F.);
#395=ADVANCED_FACE('',(#55),#382,.F.);
#396=ADVANCED_FACE('',(#56),#383,.F.);
#397=ADVANCED_FACE('',(#57),#384,.F.);
#398=ADVANCED_FACE('',(#58),#385,.F.);
#399=ADVANCED_FACE('',(#59),#386,.F.);
#400=ADVANCED_FACE('',(#60),#41,.T.);
#401=ADVANCED_FACE('',(#61),#42,.T.);
#402=ADVANCED_FACE('',(#62),#43,.T.);
#403=ADVANCED_FACE('',(#63),#44,.T.);
#404=ADVANCED_FACE('',(#64,#15,#16,#17,#18,#19,#20,#21,#22,#23,#24,#25,
#26,#27),#45,.T.);
#405=ADVANCED_FACE('',(#65,#28,#29,#30,#31,#32,#33,#34,#35,#36,#37,#38,
#39,#40),#46,.F.);
#406=CLOSED_SHELL('',(#387,#388,#389,#390,#391,#392,#393,#394,#395,#396,
#397,#398,#399,#400,#401,#402,#403,#404,#405));
#407=DERIVED_UNIT_ELEMENT(#409,1.);
#408=DERIVED_UNIT_ELEMENT(#692,-3.);
#409=(
MASS_UNIT()
NAMED_UNIT(*)
SI_UNIT(.KILO.,.GRAM.)
);
#410=DERIVED_UNIT((#407,#408));
#411=MEASURE_REPRESENTATION_ITEM('density measure',
POSITIVE_RATIO_MEASURE(7850.),#410);
#412=PROPERTY_DEFINITION_REPRESENTATION(#417,#414);
#413=PROPERTY_DEFINITION_REPRESENTATION(#418,#415);
#414=REPRESENTATION('material name',(#416),#689);
#415=REPRESENTATION('density',(#411),#689);
#416=DESCRIPTIVE_REPRESENTATION_ITEM('Acier','Acier');
#417=PROPERTY_DEFINITION('material property','material name',#699);
#418=PROPERTY_DEFINITION('material property','density of part',#699);
#419=AXIS2_PLACEMENT_3D('',#582,#465,#466);
#420=AXIS2_PLACEMENT_3D('',#583,#467,#468);
#421=AXIS2_PLACEMENT_3D('',#585,#469,#470);
#422=AXIS2_PLACEMENT_3D('',#588,#472,#473);
#423=AXIS2_PLACEMENT_3D('',#589,#474,#475);
#424=AXIS2_PLACEMENT_3D('',#591,#476,#477);
#425=AXIS2_PLACEMENT_3D('',#594,#479,#480);
#426=AXIS2_PLACEMENT_3D('',#595,#481,#482);
#427=AXIS2_PLACEMENT_3D('',#597,#483,#484);
#428=AXIS2_PLACEMENT_3D('',#600,#486,#487);
#429=AXIS2_PLACEMENT_3D('',#601,#488,#489);
#430=AXIS2_PLACEMENT_3D('',#603,#490,#491);
#431=AXIS2_PLACEMENT_3D('',#606,#493,#494);
#432=AXIS2_PLACEMENT_3D('',#607,#495,#496);
#433=AXIS2_PLACEMENT_3D('',#609,#497,#498);
#434=AXIS2_PLACEMENT_3D('',#612,#500,#501);
#435=AXIS2_PLACEMENT_3D('',#613,#502,#503);
#436=AXIS2_PLACEMENT_3D('',#615,#504,#505);
#437=AXIS2_PLACEMENT_3D('',#618,#507,#508);
#438=AXIS2_PLACEMENT_3D('',#619,#509,#510);
#439=AXIS2_PLACEMENT_3D('',#621,#511,#512);
#440=AXIS2_PLACEMENT_3D('',#624,#514,#515);
#441=AXIS2_PLACEMENT_3D('',#625,#516,#517);
#442=AXIS2_PLACEMENT_3D('',#627,#518,#519);
#443=AXIS2_PLACEMENT_3D('',#630,#521,#522);
#444=AXIS2_PLACEMENT_3D('',#631,#523,#524);
#445=AXIS2_PLACEMENT_3D('',#633,#525,#526);
#446=AXIS2_PLACEMENT_3D('',#636,#528,#529);
#447=AXIS2_PLACEMENT_3D('',#637,#530,#531);
#448=AXIS2_PLACEMENT_3D('',#639,#532,#533);
#449=AXIS2_PLACEMENT_3D('',#642,#535,#536);
#450=AXIS2_PLACEMENT_3D('',#643,#537,#538);
#451=AXIS2_PLACEMENT_3D('',#645,#539,#540);
#452=AXIS2_PLACEMENT_3D('',#648,#542,#543);
#453=AXIS2_PLACEMENT_3D('',#649,#544,#545);
#454=AXIS2_PLACEMENT_3D('',#651,#546,#547);
#455=AXIS2_PLACEMENT_3D('',#654,#549,#550);
#456=AXIS2_PLACEMENT_3D('',#655,#551,#552);
#457=AXIS2_PLACEMENT_3D('',#657,#553,#554);
#458=AXIS2_PLACEMENT_3D('',#660,#556,#557);
#459=AXIS2_PLACEMENT_3D('',#661,#558,#559);
#460=AXIS2_PLACEMENT_3D('',#670,#564,#565);
#461=AXIS2_PLACEMENT_3D('',#676,#569,#570);
#462=AXIS2_PLACEMENT_3D('',#682,#574,#575);
#463=AXIS2_PLACEMENT_3D('',#685,#578,#579);
#464=AXIS2_PLACEMENT_3D('',#686,#580,#581);
#465=DIRECTION('axis',(0.,0.,1.));
#466=DIRECTION('refdir',(1.,0.,0.));
#467=DIRECTION('center_axis',(0.,0.,1.));
#468=DIRECTION('ref_axis',(1.,0.,0.));
#469=DIRECTION('center_axis',(0.,0.,-1.));
#470=DIRECTION('ref_axis',(1.,0.,0.));
#471=DIRECTION('',(0.,0.,-1.));
#472=DIRECTION('center_axis',(0.,0.,-1.));
#473=DIRECTION('ref_axis',(1.,0.,0.));
#474=DIRECTION('center_axis',(0.,0.,1.));
#475=DIRECTION('ref_axis',(1.,0.,0.));
#476=DIRECTION('center_axis',(0.,0.,-1.));
#477=DIRECTION('ref_axis',(1.,0.,0.));
#478=DIRECTION('',(0.,0.,-1.));
#479=DIRECTION('center_axis',(0.,0.,-1.));
#480=DIRECTION('ref_axis',(1.,0.,0.));
#481=DIRECTION('center_axis',(0.,0.,1.));
#482=DIRECTION('ref_axis',(1.,0.,0.));
#483=DIRECTION('center_axis',(0.,0.,-1.));
#484=DIRECTION('ref_axis',(1.,0.,0.));
#485=DIRECTION('',(0.,0.,-1.));
#486=DIRECTION('center_axis',(0.,0.,-1.));
#487=DIRECTION('ref_axis',(1.,0.,0.));
#488=DIRECTION('center_axis',(0.,0.,1.));
#489=DIRECTION('ref_axis',(1.,0.,0.));
#490=DIRECTION('center_axis',(0.,0.,-1.));
#491=DIRECTION('ref_axis',(1.,0.,0.));
#492=DIRECTION('',(0.,0.,-1.));
#493=DIRECTION('center_axis',(0.,0.,-1.));
#494=DIRECTION('ref_axis',(1.,0.,0.));
#495=DIRECTION('center_axis',(0.,0.,1.));
#496=DIRECTION('ref_axis',(1.,0.,0.));
#497=DIRECTION('center_axis',(0.,0.,-1.));
#498=DIRECTION('ref_axis',(1.,0.,0.));
#499=DIRECTION('',(0.,0.,-1.));
#500=DIRECTION('center_axis',(0.,0.,-1.));
#501=DIRECTION('ref_axis',(1.,0.,0.));
#502=DIRECTION('center_axis',(0.,0.,1.));
#503=DIRECTION('ref_axis',(1.,0.,0.));
#504=DIRECTION('center_axis',(0.,0.,-1.));
#505=DIRECTION('ref_axis',(1.,0.,0.));
#506=DIRECTION('',(0.,0.,-1.));
#507=DIRECTION('center_axis',(0.,0.,-1.));
#508=DIRECTION('ref_axis',(1.,0.,0.));
#509=DIRECTION('center_axis',(0.,0.,1.));
#510=DIRECTION('ref_axis',(1.,0.,0.));
#511=DIRECTION('center_axis',(0.,0.,-1.));
#512=DIRECTION('ref_axis',(1.,0.,0.));
#513=DIRECTION('',(0.,0.,-1.));
#514=DIRECTION('center_axis',(0.,0.,-1.));
#515=DIRECTION('ref_axis',(1.,0.,0.));
#516=DIRECTION('center_axis',(0.,0.,1.));
#517=DIRECTION('ref_axis',(1.,0.,0.));
#518=DIRECTION('center_axis',(0.,0.,-1.));
#519=DIRECTION('ref_axis',(1.,0.,0.));
#520=DIRECTION('',(0.,0.,-1.));
#521=DIRECTION('center_axis',(0.,0.,-1.));
#522=DIRECTION('ref_axis',(1.,0.,0.));
#523=DIRECTION('center_axis',(0.,0.,1.));
#524=DIRECTION('ref_axis',(1.,0.,0.));
#525=DIRECTION('center_axis',(0.,0.,-1.));
#526=DIRECTION('ref_axis',(1.,0.,0.));
#527=DIRECTION('',(0.,0.,-1.));
#528=DIRECTION('center_axis',(0.,0.,-1.));
#529=DIRECTION('ref_axis',(1.,0.,0.));
#530=DIRECTION('center_axis',(0.,0.,1.));
#531=DIRECTION('ref_axis',(1.,0.,0.));
#532=DIRECTION('center_axis',(0.,0.,-1.));
#533=DIRECTION('ref_axis',(1.,0.,0.));
#534=DIRECTION('',(0.,0.,-1.));
#535=DIRECTION('center_axis',(0.,0.,-1.));
#536=DIRECTION('ref_axis',(1.,0.,0.));
#537=DIRECTION('center_axis',(0.,0.,1.));
#538=DIRECTION('ref_axis',(1.,0.,0.));
#539=DIRECTION('center_axis',(0.,0.,-1.));
#540=DIRECTION('ref_axis',(1.,0.,0.));
#541=DIRECTION('',(0.,0.,-1.));
#542=DIRECTION('center_axis',(0.,0.,-1.));
#543=DIRECTION('ref_axis',(1.,0.,0.));
#544=DIRECTION('center_axis',(0.,0.,1.));
#545=DIRECTION('ref_axis',(1.,0.,0.));
#546=DIRECTION('center_axis',(0.,0.,-1.));
#547=DIRECTION('ref_axis',(1.,0.,0.));
#548=DIRECTION('',(0.,0.,-1.));
#549=DIRECTION('center_axis',(0.,0.,-1.));
#550=DIRECTION('ref_axis',(1.,0.,0.));
#551=DIRECTION('center_axis',(0.,0.,1.));
#552=DIRECTION('ref_axis',(1.,0.,0.));
#553=DIRECTION('center_axis',(0.,0.,-1.));
#554=DIRECTION('ref_axis',(1.,0.,0.));
#555=DIRECTION('',(0.,0.,-1.));
#556=DIRECTION('center_axis',(0.,0.,-1.));
#557=DIRECTION('ref_axis',(1.,0.,0.));
#558=DIRECTION('center_axis',(-1.,0.,0.));
#559=DIRECTION('ref_axis',(0.,-1.,0.));
#560=DIRECTION('',(0.,1.,0.));
#561=DIRECTION('',(0.,0.,1.));
#562=DIRECTION('',(0.,-1.,0.));
#563=DIRECTION('',(0.,0.,1.));
#564=DIRECTION('center_axis',(0.,1.,0.));
#565=DIRECTION('ref_axis',(-1.,0.,0.));
#566=DIRECTION('',(1.,0.,0.));
#567=DIRECTION('',(-1.,0.,0.));
#568=DIRECTION('',(0.,0.,1.));
#569=DIRECTION('center_axis',(1.,0.,0.));
#570=DIRECTION('ref_axis',(0.,1.,0.));
#571=DIRECTION('',(0.,-1.,0.));
#572=DIRECTION('',(0.,1.,0.));
#573=DIRECTION('',(0.,0.,1.));
#574=DIRECTION('center_axis',(0.,-1.,0.));
#575=DIRECTION('ref_axis',(1.,0.,0.));
#576=DIRECTION('',(-1.,0.,0.));
#577=DIRECTION('',(1.,0.,0.));
#578=DIRECTION('center_axis',(0.,0.,1.));
#579=DIRECTION('ref_axis',(1.,0.,0.));
#580=DIRECTION('center_axis',(0.,0.,1.));
#581=DIRECTION('ref_axis',(1.,0.,0.));
#582=CARTESIAN_POINT('',(0.,0.,0.));
#583=CARTESIAN_POINT('Origin',(148.5,152.,0.));
#584=CARTESIAN_POINT('',(147.,152.,3.5));
#585=CARTESIAN_POINT('Origin',(148.5,152.,3.5));
#586=CARTESIAN_POINT('',(147.,152.,0.));
#587=CARTESIAN_POINT('',(147.,152.,0.));
#588=CARTESIAN_POINT('Origin',(148.5,152.,0.));
#589=CARTESIAN_POINT('Origin',(1.49999999999999,152.,0.));
#590=CARTESIAN_POINT('',(-1.77635683940025E-14,152.,3.5));
#591=CARTESIAN_POINT('Origin',(1.49999999999999,152.,3.5));
#592=CARTESIAN_POINT('',(-1.4432899320127E-14,152.,0.));
#593=CARTESIAN_POINT('',(-1.4432899320127E-14,152.,0.));
#594=CARTESIAN_POINT('Origin',(1.49999999999999,152.,0.));
#595=CARTESIAN_POINT('Origin',(-144.5,152.,0.));
#596=CARTESIAN_POINT('',(-146.,152.,3.5));
#597=CARTESIAN_POINT('Origin',(-144.5,152.,3.5));
#598=CARTESIAN_POINT('',(-146.,152.,0.));
#599=CARTESIAN_POINT('',(-146.,152.,0.));
#600=CARTESIAN_POINT('Origin',(-144.5,152.,0.));
#601=CARTESIAN_POINT('Origin',(91.5,97.,0.));
#602=CARTESIAN_POINT('',(90.,97.,3.5));
#603=CARTESIAN_POINT('Origin',(91.5,97.,3.5));
#604=CARTESIAN_POINT('',(90.,97.,0.));
#605=CARTESIAN_POINT('',(90.,97.,0.));
#606=CARTESIAN_POINT('Origin',(91.5,97.,0.));
#607=CARTESIAN_POINT('Origin',(-88.5,97.,0.));
#608=CARTESIAN_POINT('',(-90.,97.,3.5));
#609=CARTESIAN_POINT('Origin',(-88.5,97.,3.5));
#610=CARTESIAN_POINT('',(-90.,97.,0.));
#611=CARTESIAN_POINT('',(-90.,97.,0.));
#612=CARTESIAN_POINT('Origin',(-88.5,97.,0.));
#613=CARTESIAN_POINT('Origin',(130.5,1.99999999999999,0.));
#614=CARTESIAN_POINT('',(129.,1.99999999999999,3.5));
#615=CARTESIAN_POINT('Origin',(130.5,1.99999999999999,3.5));
#616=CARTESIAN_POINT('',(129.,1.99999999999999,0.));
#617=CARTESIAN_POINT('',(129.,1.99999999999999,0.));
#618=CARTESIAN_POINT('Origin',(130.5,1.99999999999999,0.));
#619=CARTESIAN_POINT('Origin',(1.49999999999999,1.99999999999999,0.));
#620=CARTESIAN_POINT('',(-1.77635683940025E-14,1.99999999999999,3.5));
#621=CARTESIAN_POINT('Origin',(1.49999999999999,1.99999999999999,3.5));
#622=CARTESIAN_POINT('',(-1.4432899320127E-14,1.99999999999999,0.));
#623=CARTESIAN_POINT('',(-1.4432899320127E-14,1.99999999999999,0.));
#624=CARTESIAN_POINT('Origin',(1.49999999999999,1.99999999999999,0.));
#625=CARTESIAN_POINT('Origin',(-127.5,1.99999999999999,0.));
#626=CARTESIAN_POINT('',(-129.,1.99999999999999,3.5));
#627=CARTESIAN_POINT('Origin',(-127.5,1.99999999999999,3.5));
#628=CARTESIAN_POINT('',(-129.,1.99999999999999,0.));
#629=CARTESIAN_POINT('',(-129.,1.99999999999999,0.));
#630=CARTESIAN_POINT('Origin',(-127.5,1.99999999999999,0.));
#631=CARTESIAN_POINT('Origin',(1.49999999999999,-148.,0.));
#632=CARTESIAN_POINT('',(-1.77635683940025E-14,-148.,3.5));
#633=CARTESIAN_POINT('Origin',(1.49999999999999,-148.,3.5));
#634=CARTESIAN_POINT('',(-1.4432899320127E-14,-148.,0.));
#635=CARTESIAN_POINT('',(-1.4432899320127E-14,-148.,0.));
#636=CARTESIAN_POINT('Origin',(1.49999999999999,-148.,0.));
#637=CARTESIAN_POINT('Origin',(-88.5,-93.,0.));
#638=CARTESIAN_POINT('',(-90.,-93.,3.5));
#639=CARTESIAN_POINT('Origin',(-88.5,-93.,3.5));
#640=CARTESIAN_POINT('',(-90.,-93.,0.));
#641=CARTESIAN_POINT('',(-90.,-93.,0.));
#642=CARTESIAN_POINT('Origin',(-88.5,-93.,0.));
#643=CARTESIAN_POINT('Origin',(148.5,-148.,0.));
#644=CARTESIAN_POINT('',(147.,-148.,3.5));
#645=CARTESIAN_POINT('Origin',(148.5,-148.,3.5));
#646=CARTESIAN_POINT('',(147.,-148.,0.));
#647=CARTESIAN_POINT('',(147.,-148.,0.));
#648=CARTESIAN_POINT('Origin',(148.5,-148.,0.));
#649=CARTESIAN_POINT('Origin',(91.5,-93.,0.));
#650=CARTESIAN_POINT('',(90.,-93.,3.5));
#651=CARTESIAN_POINT('Origin',(91.5,-93.,3.5));
#652=CARTESIAN_POINT('',(90.,-93.,0.));
#653=CARTESIAN_POINT('',(90.,-93.,0.));
#654=CARTESIAN_POINT('Origin',(91.5,-93.,0.));
#655=CARTESIAN_POINT('Origin',(-144.5,-148.,0.));
#656=CARTESIAN_POINT('',(-146.,-148.,3.5));
#657=CARTESIAN_POINT('Origin',(-144.5,-148.,3.5));
#658=CARTESIAN_POINT('',(-146.,-148.,0.));
#659=CARTESIAN_POINT('',(-146.,-148.,0.));
#660=CARTESIAN_POINT('Origin',(-144.5,-148.,0.));
#661=CARTESIAN_POINT('Origin',(-168.5,171.,0.));
#662=CARTESIAN_POINT('',(-168.5,-171.,0.));
#663=CARTESIAN_POINT('',(-168.5,171.,0.));
#664=CARTESIAN_POINT('',(-168.5,-171.,0.));
#665=CARTESIAN_POINT('',(-168.5,-171.,3.5));
#666=CARTESIAN_POINT('',(-168.5,-171.,0.));
#667=CARTESIAN_POINT('',(-168.5,171.,3.5));
#668=CARTESIAN_POINT('',(-168.5,-171.,3.5));
#669=CARTESIAN_POINT('',(-168.5,171.,0.));
#670=CARTESIAN_POINT('Origin',(168.5,171.,0.));
#671=CARTESIAN_POINT('',(168.5,171.,0.));
#672=CARTESIAN_POINT('',(-168.5,171.,0.));
#673=CARTESIAN_POINT('',(168.5,171.,3.5));
#674=CARTESIAN_POINT('',(-168.5,171.,3.5));
#675=CARTESIAN_POINT('',(168.5,171.,0.));
#676=CARTESIAN_POINT('Origin',(168.5,-171.,0.));
#677=CARTESIAN_POINT('',(168.5,-171.,0.));
#678=CARTESIAN_POINT('',(168.5,171.,0.));
#679=CARTESIAN_POINT('',(168.5,-171.,3.5));
#680=CARTESIAN_POINT('',(168.5,171.,3.5));
#681=CARTESIAN_POINT('',(168.5,-171.,0.));
#682=CARTESIAN_POINT('Origin',(-168.5,-171.,0.));
#683=CARTESIAN_POINT('',(168.5,-171.,0.));
#684=CARTESIAN_POINT('',(168.5,-171.,3.5));
#685=CARTESIAN_POINT('Origin',(0.,0.,3.5));
#686=CARTESIAN_POINT('Origin',(0.,0.,0.));
#687=UNCERTAINTY_MEASURE_WITH_UNIT(LENGTH_MEASURE(0.01),#691,
'DISTANCE_ACCURACY_VALUE',
'Maximum model space distance between geometric entities at asserted c
onnectivities');
#688=UNCERTAINTY_MEASURE_WITH_UNIT(LENGTH_MEASURE(0.01),#691,
'DISTANCE_ACCURACY_VALUE',
'Maximum model space distance between geometric entities at asserted c
onnectivities');
#689=(
GEOMETRIC_REPRESENTATION_CONTEXT(3)
GLOBAL_UNCERTAINTY_ASSIGNED_CONTEXT((#687))
GLOBAL_UNIT_ASSIGNED_CONTEXT((#691,#693,#694))
REPRESENTATION_CONTEXT('','3D')
);
#690=(
GEOMETRIC_REPRESENTATION_CONTEXT(3)
GLOBAL_UNCERTAINTY_ASSIGNED_CONTEXT((#688))
GLOBAL_UNIT_ASSIGNED_CONTEXT((#691,#693,#694))
REPRESENTATION_CONTEXT('','3D')
);
#691=(
LENGTH_UNIT()
NAMED_UNIT(*)
SI_UNIT(.MILLI.,.METRE.)
);
#692=(
LENGTH_UNIT()
NAMED_UNIT(*)
SI_UNIT($,.METRE.)
);
#693=(
NAMED_UNIT(*)
PLANE_ANGLE_UNIT()
SI_UNIT($,.RADIAN.)
);
#694=(
NAMED_UNIT(*)
SI_UNIT($,.STERADIAN.)
SOLID_ANGLE_UNIT()
);
#695=SHAPE_DEFINITION_REPRESENTATION(#696,#697);
#696=PRODUCT_DEFINITION_SHAPE('',$,#699);
#697=SHAPE_REPRESENTATION('',(#419),#689);
#698=PRODUCT_DEFINITION_CONTEXT('part definition',#703,'design');
#699=PRODUCT_DEFINITION('Plaque support imprimant 3D',
'Plaque support imprimant 3D v1',#700,#698);
#700=PRODUCT_DEFINITION_FORMATION('',$,#705);
#701=PRODUCT_RELATED_PRODUCT_CATEGORY('Plaque support imprimant 3D v1',
'Plaque support imprimant 3D v1',(#705));
#702=APPLICATION_PROTOCOL_DEFINITION('international standard',
'automotive_design',2009,#703);
#703=APPLICATION_CONTEXT(
'Core Data for Automotive Mechanical Design Process');
#704=PRODUCT_CONTEXT('part definition',#703,'mechanical');
#705=PRODUCT('Plaque support imprimant 3D',
'Plaque support imprimant 3D v1',$,(#704));
#706=PRESENTATION_STYLE_ASSIGNMENT((#707));
#707=SURFACE_STYLE_USAGE(.BOTH.,#708);
#708=SURFACE_SIDE_STYLE('',(#709));
#709=SURFACE_STYLE_FILL_AREA(#710);
#710=FILL_AREA_STYLE('Acier - Satin\X\E9',(#711));
#711=FILL_AREA_STYLE_COLOUR('Acier - Satin\X\E9',#712);
#712=COLOUR_RGB('Acier - Satin\X\E9',0.627450980392157,0.627450980392157,
0.627450980392157);
ENDSEC;
END-ISO-10303-21;
