ISO-10303-21;
HEADER;
FILE_DESCRIPTION( ( 'STEP AP203' ), '1' );
FILE_NAME( ' ', '  ', ( '  ' ), ( '  ' ), 'PSStep 10.1', '  ', '  ' );
FILE_SCHEMA( ( 'CONFIG_CONTROL_DESIGN' ) );
ENDSEC;
DATA;
#1 = DESIGN_CONTEXT( '', #27, 'design' );
#2 = APPLICATION_PROTOCOL_DEFINITION( 'INTERNATIONAL STANDARD', 'config_control_design', 1994, #27 );
#3 = PRODUCT_CATEGORY_RELATIONSHIP( 'NONE', 'NONE', #28, #29 );
#4 = DATE_AND_TIME( #30, #31 );
#5 = DATE_TIME_ROLE( 'creation_date' );
#6 = DATE_TIME_ROLE( 'classification_date' );
#7 = PERSON_AND_ORGANIZATION_ROLE( 'creator' );
#8 = PERSON_AND_ORGANIZATION_ROLE( 'design_supplier' );
#9 = PERSON_AND_ORGANIZATION_ROLE( 'classification_officer' );
#10 = PERSON_AND_ORGANIZATION_ROLE( 'design_owner' );
#11 = APPROVAL_PERSON_ORGANIZATION( #32, #33, #34 );
#12 = APPROVAL_DATE_TIME( #4, #33 );
#13 = CC_DESIGN_APPROVAL( #33, ( #35, #36, #37 ) );
#14 = CC_DESIGN_DATE_AND_TIME_ASSIGNMENT( #4, #5, ( #37 ) );
#15 = CC_DESIGN_DATE_AND_TIME_ASSIGNMENT( #4, #6, ( #35 ) );
#16 = CC_DESIGN_PERSON_AND_ORGANIZATION_ASSIGNMENT( #32, #10, ( #38 ) );
#17 = CC_DESIGN_PERSON_AND_ORGANIZATION_ASSIGNMENT( #32, #7, ( #37 ) );
#18 = CC_DESIGN_PERSON_AND_ORGANIZATION_ASSIGNMENT( #32, #7, ( #36 ) );
#19 = CC_DESIGN_PERSON_AND_ORGANIZATION_ASSIGNMENT( #32, #8, ( #36 ) );
#20 = CC_DESIGN_SECURITY_CLASSIFICATION( #35, ( #36 ) );
#21 = CC_DESIGN_PERSON_AND_ORGANIZATION_ASSIGNMENT( #32, #9, ( #35 ) );
#22 = SHAPE_DEFINITION_REPRESENTATION( #39, #40 );
#23 =  ( GEOMETRIC_REPRESENTATION_CONTEXT( 3 )GLOBAL_UNCERTAINTY_ASSIGNED_CONTEXT( ( #43 ) )GLOBAL_UNIT_ASSIGNED_CONTEXT( ( #45, #46, #47 ) )REPRESENTATION_CONTEXT( 'NONE', 'WORKSPACE' ) );
#27 = APPLICATION_CONTEXT( 'CONFIGURATION CONTROLLED 3D DESIGNS OF MECHANICAL PARTS AND ASSEMBLIES' );
#28 = PRODUCT_CATEGORY( 'part', 'NONE' );
#29 = PRODUCT_RELATED_PRODUCT_CATEGORY( 'detail', ' ', ( #38 ) );
#30 = CALENDAR_DATE( 2023, 12, 6 );
#31 = LOCAL_TIME( 9, 24, 56.0000000000000, #49 );
#32 = PERSON_AND_ORGANIZATION( #50, #51 );
#33 = APPROVAL( #52, 'SOLID MODEL' );
#34 = APPROVAL_ROLE( 'APPROVED' );
#35 = SECURITY_CLASSIFICATION( '', '', #53 );
#36 = PRODUCT_DEFINITION_FORMATION_WITH_SPECIFIED_SOURCE( ' ', 'NONE', #38, .NOT_KNOWN. );
#37 = PRODUCT_DEFINITION( 'NONE', 'NONE', #36, #1 );
#38 = PRODUCT( '1', '1', 'PART-1-DESC', ( #54 ) );
#39 = PRODUCT_DEFINITION_SHAPE( 'NONE', 'NONE', #37 );
#40 = ADVANCED_BREP_SHAPE_REPRESENTATION( '1', ( #55, #56 ), #23 );
#43 = UNCERTAINTY_MEASURE_WITH_UNIT( LENGTH_MEASURE( 0.00100000000000000 ), #45, '', '' );
#45 =  ( CONVERSION_BASED_UNIT( 'MILLIMETRE', #59 )LENGTH_UNIT(  )NAMED_UNIT( #62 ) );
#46 =  ( NAMED_UNIT( #64 )PLANE_ANGLE_UNIT(  )SI_UNIT( $, .RADIAN. ) );
#47 =  ( NAMED_UNIT( #64 )SI_UNIT( $, .STERADIAN. )SOLID_ANGLE_UNIT(  ) );
#49 = COORDINATED_UNIVERSAL_TIME_OFFSET( 1, 0, .AHEAD. );
#50 = PERSON( '', 'UNSPECIFIED', $, $, $, $ );
#51 = ORGANIZATION( 'UNSPECIFIED', 'UNSPECIFIED', 'UNSPECIFIED' );
#52 = APPROVAL_STATUS( 'approved' );
#53 = SECURITY_CLASSIFICATION_LEVEL( 'unclassified' );
#54 = MECHANICAL_CONTEXT( '', #27, 'mechanical' );
#55 = MANIFOLD_SOLID_BREP( '1', #70 );
#56 = AXIS2_PLACEMENT_3D( '', #71, #72, #73 );
#59 = LENGTH_MEASURE_WITH_UNIT( LENGTH_MEASURE( 1.00000000000000 ), #74 );
#62 = DIMENSIONAL_EXPONENTS( 1.00000000000000, 0.000000000000000, 0.000000000000000, 0.000000000000000, 0.000000000000000, 0.000000000000000, 0.000000000000000 );
#64 = DIMENSIONAL_EXPONENTS( 0.000000000000000, 0.000000000000000, 0.000000000000000, 0.000000000000000, 0.000000000000000, 0.000000000000000, 0.000000000000000 );
#70 = CLOSED_SHELL( '', ( #75, #76, #77, #78, #79, #80, #81, #82, #83, #84, #85, #86, #87 ) );
#71 = CARTESIAN_POINT( '', ( 0.000000000000000, 0.000000000000000, 0.000000000000000 ) );
#72 = DIRECTION( '', ( 0.000000000000000, 0.000000000000000, 1.00000000000000 ) );
#73 = DIRECTION( '', ( 1.00000000000000, 0.000000000000000, 0.000000000000000 ) );
#74 =  ( LENGTH_UNIT(  )NAMED_UNIT( #62 )SI_UNIT( .MILLI., .METRE. ) );
#75 = ADVANCED_FACE( '', ( #89 ), #90, .F. );
#76 = ADVANCED_FACE( '', ( #91 ), #92, .F. );
#77 = ADVANCED_FACE( '', ( #93, #94 ), #95, .F. );
#78 = ADVANCED_FACE( '', ( #96 ), #97, .F. );
#79 = ADVANCED_FACE( '', ( #98 ), #99, .F. );
#80 = ADVANCED_FACE( '', ( #100 ), #101, .F. );
#81 = ADVANCED_FACE( '', ( #102 ), #103, .F. );
#82 = ADVANCED_FACE( '', ( #104, #105 ), #106, .T. );
#83 = ADVANCED_FACE( '', ( #107 ), #108, .F. );
#84 = ADVANCED_FACE( '', ( #109, #110 ), #111, .F. );
#85 = ADVANCED_FACE( '', ( #112 ), #113, .T. );
#86 = ADVANCED_FACE( '', ( #114 ), #115, .F. );
#87 = ADVANCED_FACE( '', ( #116 ), #117, .T. );
#89 = FACE_OUTER_BOUND( '', #118, .T. );
#90 = CYLINDRICAL_SURFACE( '', #119, 27.8000000000000 );
#91 = FACE_OUTER_BOUND( '', #120, .T. );
#92 = CYLINDRICAL_SURFACE( '', #121, 31.1999999971000 );
#93 = FACE_OUTER_BOUND( '', #122, .T. );
#94 = FACE_BOUND( '', #123, .T. );
#95 = PLANE( '', #124 );
#96 = FACE_OUTER_BOUND( '', #125, .T. );
#97 = PLANE( '', #126 );
#98 = FACE_OUTER_BOUND( '', #127, .T. );
#99 = PLANE( '', #128 );
#100 = FACE_OUTER_BOUND( '', #129, .T. );
#101 = PLANE( '', #130 );
#102 = FACE_OUTER_BOUND( '', #131, .T. );
#103 = PLANE( '', #132 );
#104 = FACE_OUTER_BOUND( '', #133, .T. );
#105 = FACE_BOUND( '', #134, .T. );
#106 = PLANE( '', #135 );
#107 = FACE_OUTER_BOUND( '', #136, .T. );
#108 = CYLINDRICAL_SURFACE( '', #137, 27.8000000000000 );
#109 = FACE_OUTER_BOUND( '', #138, .T. );
#110 = FACE_BOUND( '', #139, .T. );
#111 = PLANE( '', #140 );
#112 = FACE_OUTER_BOUND( '', #141, .T. );
#113 = TOROIDAL_SURFACE( '', #142, 34.1999999971000, 3.00000000000000 );
#114 = FACE_OUTER_BOUND( '', #143, .T. );
#115 = CYLINDRICAL_SURFACE( '', #144, 31.1999999971000 );
#116 = FACE_OUTER_BOUND( '', #145, .T. );
#117 = TOROIDAL_SURFACE( '', #146, 34.1999999971000, 3.00000000000000 );
#118 = EDGE_LOOP( '', ( #147, #148, #149, #150 ) );
#119 = AXIS2_PLACEMENT_3D( '', #151, #152, #153 );
#120 = EDGE_LOOP( '', ( #154, #155, #156, #157 ) );
#121 = AXIS2_PLACEMENT_3D( '', #158, #159, #160 );
#122 = EDGE_LOOP( '', ( #161, #162, #163, #164 ) );
#123 = EDGE_LOOP( '', ( #165, #166 ) );
#124 = AXIS2_PLACEMENT_3D( '', #167, #168, #169 );
#125 = EDGE_LOOP( '', ( #170, #171, #172, #173 ) );
#126 = AXIS2_PLACEMENT_3D( '', #174, #175, #176 );
#127 = EDGE_LOOP( '', ( #177, #178, #179, #180 ) );
#128 = AXIS2_PLACEMENT_3D( '', #181, #182, #183 );
#129 = EDGE_LOOP( '', ( #184, #185, #186, #187 ) );
#130 = AXIS2_PLACEMENT_3D( '', #188, #189, #190 );
#131 = EDGE_LOOP( '', ( #191, #192, #193, #194 ) );
#132 = AXIS2_PLACEMENT_3D( '', #195, #196, #197 );
#133 = EDGE_LOOP( '', ( #198, #199, #200, #201 ) );
#134 = EDGE_LOOP( '', ( #202, #203 ) );
#135 = AXIS2_PLACEMENT_3D( '', #204, #205, #206 );
#136 = EDGE_LOOP( '', ( #207, #208, #209, #210 ) );
#137 = AXIS2_PLACEMENT_3D( '', #211, #212, #213 );
#138 = EDGE_LOOP( '', ( #214, #215 ) );
#139 = EDGE_LOOP( '', ( #216, #217 ) );
#140 = AXIS2_PLACEMENT_3D( '', #218, #219, #220 );
#141 = EDGE_LOOP( '', ( #221, #222, #223, #224 ) );
#142 = AXIS2_PLACEMENT_3D( '', #225, #226, #227 );
#143 = EDGE_LOOP( '', ( #228, #229, #230, #231 ) );
#144 = AXIS2_PLACEMENT_3D( '', #232, #233, #234 );
#145 = EDGE_LOOP( '', ( #235, #236, #237, #238 ) );
#146 = AXIS2_PLACEMENT_3D( '', #239, #240, #241 );
#147 = ORIENTED_EDGE( '', *, *, #242, .F. );
#148 = ORIENTED_EDGE( '', *, *, #243, .T. );
#149 = ORIENTED_EDGE( '', *, *, #244, .T. );
#150 = ORIENTED_EDGE( '', *, *, #245, .F. );
#151 = CARTESIAN_POINT( '', ( 20845.8172750000, 119.261860037000, 2046.30482404000 ) );
#152 = DIRECTION( '', ( 0.107860544993033, -0.000000000000000, -0.994166033836303 ) );
#153 = DIRECTION( '', ( 0.000000000000000, -1.00000000000000, 0.000000000000000 ) );
#154 = ORIENTED_EDGE( '', *, *, #246, .T. );
#155 = ORIENTED_EDGE( '', *, *, #247, .T. );
#156 = ORIENTED_EDGE( '', *, *, #248, .F. );
#157 = ORIENTED_EDGE( '', *, *, #249, .F. );
#158 = CARTESIAN_POINT( '', ( 20847.7226615000, 119.261860037000, 2028.74260488000 ) );
#159 = DIRECTION( '', ( 0.107860544993033, -0.000000000000000, -0.994166033836303 ) );
#160 = DIRECTION( '', ( 0.000000000000000, -1.00000000000000, 0.000000000000000 ) );
#161 = ORIENTED_EDGE( '', *, *, #250, .F. );
#162 = ORIENTED_EDGE( '', *, *, #251, .F. );
#163 = ORIENTED_EDGE( '', *, *, #252, .F. );
#164 = ORIENTED_EDGE( '', *, *, #253, .F. );
#165 = ORIENTED_EDGE( '', *, *, #254, .T. );
#166 = ORIENTED_EDGE( '', *, *, #255, .T. );
#167 = CARTESIAN_POINT( '', ( 24.4708030269000, 0.000000000000000, -225.550883241000 ) );
#168 = DIRECTION( '', ( -0.107860544993033, 0.000000000000000, 0.994166033836303 ) );
#169 = DIRECTION( '', ( 0.000000000000000, 1.00000000000000, 0.000000000000000 ) );
#170 = ORIENTED_EDGE( '', *, *, #256, .F. );
#171 = ORIENTED_EDGE( '', *, *, #253, .T. );
#172 = ORIENTED_EDGE( '', *, *, #257, .T. );
#173 = ORIENTED_EDGE( '', *, *, #258, .F. );
#174 = CARTESIAN_POINT( '', ( 20896.1922713000, 171.761860037000, 2038.89507035000 ) );
#175 = DIRECTION( '', ( -0.994166033836303, 0.000000000000000, -0.107860544993033 ) );
#176 = DIRECTION( '', ( -0.107860544993033, 0.000000000000000, 0.994166033836303 ) );
#177 = ORIENTED_EDGE( '', *, *, #257, .F. );
#178 = ORIENTED_EDGE( '', *, *, #252, .T. );
#179 = ORIENTED_EDGE( '', *, *, #259, .T. );
#180 = ORIENTED_EDGE( '', *, *, #260, .F. );
#181 = CARTESIAN_POINT( '', ( 20786.8340076000, 171.761860037000, 2027.03041040000 ) );
#182 = DIRECTION( '', ( 0.000000000000000, -1.00000000000000, 0.000000000000000 ) );
#183 = DIRECTION( '', ( 0.000000000000000, 0.000000000000000, -1.00000000000000 ) );
#184 = ORIENTED_EDGE( '', *, *, #261, .F. );
#185 = ORIENTED_EDGE( '', *, *, #250, .T. );
#186 = ORIENTED_EDGE( '', *, *, #256, .T. );
#187 = ORIENTED_EDGE( '', *, *, #262, .F. );
#188 = CARTESIAN_POINT( '', ( 20896.1922713000, 66.7618600372000, 2038.89507035000 ) );
#189 = DIRECTION( '', ( 0.000000000000000, 1.00000000000000, 0.000000000000000 ) );
#190 = DIRECTION( '', ( 1.00000000000000, 0.000000000000000, -0.000000000000000 ) );
#191 = ORIENTED_EDGE( '', *, *, #259, .F. );
#192 = ORIENTED_EDGE( '', *, *, #251, .T. );
#193 = ORIENTED_EDGE( '', *, *, #261, .T. );
#194 = ORIENTED_EDGE( '', *, *, #263, .F. );
#195 = CARTESIAN_POINT( '', ( 20786.8340076000, 66.7618600372000, 2027.03041040000 ) );
#196 = DIRECTION( '', ( 0.994166033836303, 0.000000000000000, 0.107860544993033 ) );
#197 = DIRECTION( '', ( 0.000000000000000, -1.00000000000000, -0.000000000000000 ) );
#198 = ORIENTED_EDGE( '', *, *, #262, .T. );
#199 = ORIENTED_EDGE( '', *, *, #258, .T. );
#200 = ORIENTED_EDGE( '', *, *, #260, .T. );
#201 = ORIENTED_EDGE( '', *, *, #263, .T. );
#202 = ORIENTED_EDGE( '', *, *, #243, .F. );
#203 = ORIENTED_EDGE( '', *, *, #264, .F. );
#204 = CARTESIAN_POINT( '', ( 22.6587458710000, 0.000000000000000, -208.848893873000 ) );
#205 = DIRECTION( '', ( -0.107860544993033, 0.000000000000000, 0.994166033836303 ) );
#206 = DIRECTION( '', ( 0.000000000000000, 1.00000000000000, 0.000000000000000 ) );
#207 = ORIENTED_EDGE( '', *, *, #244, .F. );
#208 = ORIENTED_EDGE( '', *, *, #264, .T. );
#209 = ORIENTED_EDGE( '', *, *, #242, .T. );
#210 = ORIENTED_EDGE( '', *, *, #265, .F. );
#211 = CARTESIAN_POINT( '', ( 20845.8172750000, 119.261860037000, 2046.30482404000 ) );
#212 = DIRECTION( '', ( 0.107860544993033, -0.000000000000000, -0.994166033836303 ) );
#213 = DIRECTION( '', ( 0.000000000000000, -1.00000000000000, 0.000000000000000 ) );
#214 = ORIENTED_EDGE( '', *, *, #266, .F. );
#215 = ORIENTED_EDGE( '', *, *, #246, .F. );
#216 = ORIENTED_EDGE( '', *, *, #265, .T. );
#217 = ORIENTED_EDGE( '', *, *, #245, .T. );
#218 = CARTESIAN_POINT( '', ( 23.5216302310000, 0.000000000000000, -216.802222143000 ) );
#219 = DIRECTION( '', ( -0.107860544993033, 0.000000000000000, 0.994166033836303 ) );
#220 = DIRECTION( '', ( 0.000000000000000, 1.00000000000000, 0.000000000000000 ) );
#221 = ORIENTED_EDGE( '', *, *, #267, .T. );
#222 = ORIENTED_EDGE( '', *, *, #268, .T. );
#223 = ORIENTED_EDGE( '', *, *, #269, .F. );
#224 = ORIENTED_EDGE( '', *, *, #255, .F. );
#225 = CARTESIAN_POINT( '', ( 20846.8743083000, 119.261860037000, 2036.56199691000 ) );
#226 = DIRECTION( '', ( -0.107860544993033, -3.41817943206256E-015, 0.994166033836303 ) );
#227 = DIRECTION( '', ( -2.33203769707000E-013, 1.00000000000000, -2.18628534100000E-014 ) );
#228 = ORIENTED_EDGE( '', *, *, #266, .T. );
#229 = ORIENTED_EDGE( '', *, *, #249, .T. );
#230 = ORIENTED_EDGE( '', *, *, #268, .F. );
#231 = ORIENTED_EDGE( '', *, *, #247, .F. );
#232 = CARTESIAN_POINT( '', ( 20847.7226615000, 119.261860037000, 2028.74260488000 ) );
#233 = DIRECTION( '', ( 0.107860544993033, -0.000000000000000, -0.994166033836303 ) );
#234 = DIRECTION( '', ( 0.000000000000000, -1.00000000000000, 0.000000000000000 ) );
#235 = ORIENTED_EDGE( '', *, *, #269, .T. );
#236 = ORIENTED_EDGE( '', *, *, #248, .T. );
#237 = ORIENTED_EDGE( '', *, *, #267, .F. );
#238 = ORIENTED_EDGE( '', *, *, #254, .F. );
#239 = CARTESIAN_POINT( '', ( 20846.8743083000, 119.261860037000, 2036.56199691000 ) );
#240 = DIRECTION( '', ( -0.107860544993033, -7.24510208767130E-015, 0.994166033836303 ) );
#241 = DIRECTION( '', ( 0.000000000000000, -1.00000000000000, -7.28761780335000E-015 ) );
#242 = EDGE_CURVE( '', #270, #271, #272, .T. );
#243 = EDGE_CURVE( '', #270, #273, #274, .T. );
#244 = EDGE_CURVE( '', #273, #275, #276, .T. );
#245 = EDGE_CURVE( '', #271, #275, #277, .T. );
#246 = EDGE_CURVE( '', #278, #279, #280, .T. );
#247 = EDGE_CURVE( '', #279, #281, #282, .T. );
#248 = EDGE_CURVE( '', #283, #281, #284, .T. );
#249 = EDGE_CURVE( '', #278, #283, #285, .T. );
#250 = EDGE_CURVE( '', #286, #287, #288, .T. );
#251 = EDGE_CURVE( '', #289, #286, #290, .T. );
#252 = EDGE_CURVE( '', #291, #289, #292, .T. );
#253 = EDGE_CURVE( '', #287, #291, #293, .T. );
#254 = EDGE_CURVE( '', #294, #295, #296, .T. );
#255 = EDGE_CURVE( '', #295, #294, #297, .T. );
#256 = EDGE_CURVE( '', #287, #298, #299, .T. );
#257 = EDGE_CURVE( '', #291, #300, #301, .T. );
#258 = EDGE_CURVE( '', #298, #300, #302, .T. );
#259 = EDGE_CURVE( '', #289, #303, #304, .T. );
#260 = EDGE_CURVE( '', #300, #303, #305, .T. );
#261 = EDGE_CURVE( '', #286, #306, #307, .T. );
#262 = EDGE_CURVE( '', #306, #298, #308, .T. );
#263 = EDGE_CURVE( '', #303, #306, #309, .T. );
#264 = EDGE_CURVE( '', #273, #270, #310, .T. );
#265 = EDGE_CURVE( '', #275, #271, #311, .T. );
#266 = EDGE_CURVE( '', #279, #278, #312, .T. );
#267 = EDGE_CURVE( '', #295, #281, #313, .T. );
#268 = EDGE_CURVE( '', #281, #283, #314, .T. );
#269 = EDGE_CURVE( '', #294, #283, #315, .T. );
#270 = VERTEX_POINT( '', #316 );
#271 = VERTEX_POINT( '', #317 );
#272 = LINE( '', #318, #319 );
#273 = VERTEX_POINT( '', #320 );
#274 = CIRCLE( '', #321, 27.8000000000000 );
#275 = VERTEX_POINT( '', #322 );
#276 = LINE( '', #323, #324 );
#277 = CIRCLE( '', #325, 27.8000000000000 );
#278 = VERTEX_POINT( '', #326 );
#279 = VERTEX_POINT( '', #327 );
#280 = CIRCLE( '', #328, 31.2000000009000 );
#281 = VERTEX_POINT( '', #329 );
#282 = LINE( '', #330, #331 );
#283 = VERTEX_POINT( '', #332 );
#284 = CIRCLE( '', #333, 31.1999999971000 );
#285 = LINE( '', #334, #335 );
#286 = VERTEX_POINT( '', #336 );
#287 = VERTEX_POINT( '', #337 );
#288 = LINE( '', #338, #339 );
#289 = VERTEX_POINT( '', #340 );
#290 = LINE( '', #341, #342 );
#291 = VERTEX_POINT( '', #343 );
#292 = LINE( '', #344, #345 );
#293 = LINE( '', #346, #347 );
#294 = VERTEX_POINT( '', #348 );
#295 = VERTEX_POINT( '', #349 );
#296 = CIRCLE( '', #350, 34.1999999971000 );
#297 = CIRCLE( '', #351, 34.1999999971000 );
#298 = VERTEX_POINT( '', #352 );
#299 = LINE( '', #353, #354 );
#300 = VERTEX_POINT( '', #355 );
#301 = LINE( '', #356, #357 );
#302 = LINE( '', #358, #359 );
#303 = VERTEX_POINT( '', #360 );
#304 = LINE( '', #361, #362 );
#305 = LINE( '', #363, #364 );
#306 = VERTEX_POINT( '', #365 );
#307 = LINE( '', #366, #367 );
#308 = LINE( '', #368, #369 );
#309 = LINE( '', #370, #371 );
#310 = CIRCLE( '', #372, 27.8000000000000 );
#311 = CIRCLE( '', #373, 27.8000000000000 );
#312 = CIRCLE( '', #374, 31.2000000009000 );
#313 = CIRCLE( '', #375, 3.00000000000000 );
#314 = CIRCLE( '', #376, 31.1999999971000 );
#315 = CIRCLE( '', #377, 3.00000000000000 );
#316 = CARTESIAN_POINT( '', ( 20845.3858328000, 147.061860037000, 2050.28148817000 ) );
#317 = CARTESIAN_POINT( '', ( 20846.2487172000, 147.061860037000, 2042.32815990000 ) );
#318 = CARTESIAN_POINT( '', ( 20845.8172750000, 147.061860037000, 2046.30482404000 ) );
#319 = VECTOR( '', #378, 1000.00000000000 );
#320 = CARTESIAN_POINT( '', ( 20845.3858328000, 91.4618600372000, 2050.28148817000 ) );
#321 = AXIS2_PLACEMENT_3D( '', #379, #380, #381 );
#322 = CARTESIAN_POINT( '', ( 20846.2487172000, 91.4618600372000, 2042.32815990000 ) );
#323 = CARTESIAN_POINT( '', ( 20845.8172750000, 91.4618600372000, 2046.30482404000 ) );
#324 = VECTOR( '', #382, 1000.00000000000 );
#325 = AXIS2_PLACEMENT_3D( '', #383, #384, #385 );
#326 = CARTESIAN_POINT( '', ( 20846.2487172000, 88.0618600401000, 2042.32815990000 ) );
#327 = CARTESIAN_POINT( '', ( 20846.2487172000, 150.461860034000, 2042.32815990000 ) );
#328 = AXIS2_PLACEMENT_3D( '', #386, #387, #388 );
#329 = CARTESIAN_POINT( '', ( 20846.8743083000, 150.461860034000, 2036.56199691000 ) );
#330 = CARTESIAN_POINT( '', ( 20847.7226615000, 150.461860034000, 2028.74260488000 ) );
#331 = VECTOR( '', #389, 1000.00000000000 );
#332 = CARTESIAN_POINT( '', ( 20846.8743083000, 88.0618600401000, 2036.56199691000 ) );
#333 = AXIS2_PLACEMENT_3D( '', #390, #391, #392 );
#334 = CARTESIAN_POINT( '', ( 20847.7226615000, 88.0618600401000, 2028.74260488000 ) );
#335 = VECTOR( '', #393, 1000.00000000000 );
#336 = CARTESIAN_POINT( '', ( 20786.8340076000, 66.7618600372000, 2027.03041040000 ) );
#337 = CARTESIAN_POINT( '', ( 20896.1922713000, 66.7618600372000, 2038.89507035000 ) );
#338 = CARTESIAN_POINT( '', ( 20841.5131395000, 66.7618600372000, 2032.96274037000 ) );
#339 = VECTOR( '', #394, 1000.00000000000 );
#340 = CARTESIAN_POINT( '', ( 20786.8340076000, 171.761860037000, 2027.03041040000 ) );
#341 = CARTESIAN_POINT( '', ( 20786.8340076000, 119.261860037000, 2027.03041040000 ) );
#342 = VECTOR( '', #395, 1000.00000000000 );
#343 = CARTESIAN_POINT( '', ( 20896.1922713000, 171.761860037000, 2038.89507035000 ) );
#344 = CARTESIAN_POINT( '', ( 20841.5131395000, 171.761860037000, 2032.96274037000 ) );
#345 = VECTOR( '', #396, 1000.00000000000 );
#346 = CARTESIAN_POINT( '', ( 20896.1922713000, 119.261860037000, 2038.89507035000 ) );
#347 = VECTOR( '', #397, 1000.00000000000 );
#348 = CARTESIAN_POINT( '', ( 20847.1978900000, 85.0618600401000, 2033.57949881000 ) );
#349 = CARTESIAN_POINT( '', ( 20847.1978900000, 153.461860034000, 2033.57949881000 ) );
#350 = AXIS2_PLACEMENT_3D( '', #398, #399, #400 );
#351 = AXIS2_PLACEMENT_3D( '', #401, #402, #403 );
#352 = CARTESIAN_POINT( '', ( 20894.3802142000, 66.7618600372000, 2055.59705972000 ) );
#353 = CARTESIAN_POINT( '', ( 20895.2862428000, 66.7618600372000, 2047.24606503000 ) );
#354 = VECTOR( '', #404, 1000.00000000000 );
#355 = CARTESIAN_POINT( '', ( 20894.3802142000, 171.761860037000, 2055.59705972000 ) );
#356 = CARTESIAN_POINT( '', ( 20895.2862428000, 171.761860037000, 2047.24606503000 ) );
#357 = VECTOR( '', #405, 1000.00000000000 );
#358 = CARTESIAN_POINT( '', ( 20894.3802142000, 119.261860037000, 2055.59705972000 ) );
#359 = VECTOR( '', #406, 1000.00000000000 );
#360 = CARTESIAN_POINT( '', ( 20785.0219505000, 171.761860037000, 2043.73239977000 ) );
#361 = CARTESIAN_POINT( '', ( 20785.9279790000, 171.761860037000, 2035.38140508000 ) );
#362 = VECTOR( '', #407, 1000.00000000000 );
#363 = CARTESIAN_POINT( '', ( 20839.7010823000, 171.761860037000, 2049.66472974000 ) );
#364 = VECTOR( '', #408, 1000.00000000000 );
#365 = CARTESIAN_POINT( '', ( 20785.0219505000, 66.7618600372000, 2043.73239977000 ) );
#366 = CARTESIAN_POINT( '', ( 20785.9279790000, 66.7618600372000, 2035.38140508000 ) );
#367 = VECTOR( '', #409, 1000.00000000000 );
#368 = CARTESIAN_POINT( '', ( 20839.7010823000, 66.7618600372000, 2049.66472974000 ) );
#369 = VECTOR( '', #410, 1000.00000000000 );
#370 = CARTESIAN_POINT( '', ( 20785.0219505000, 119.261860037000, 2043.73239977000 ) );
#371 = VECTOR( '', #411, 1000.00000000000 );
#372 = AXIS2_PLACEMENT_3D( '', #412, #413, #414 );
#373 = AXIS2_PLACEMENT_3D( '', #415, #416, #417 );
#374 = AXIS2_PLACEMENT_3D( '', #418, #419, #420 );
#375 = AXIS2_PLACEMENT_3D( '', #421, #422, #423 );
#376 = AXIS2_PLACEMENT_3D( '', #424, #425, #426 );
#377 = AXIS2_PLACEMENT_3D( '', #427, #428, #429 );
#378 = DIRECTION( '', ( 0.107860544993033, -0.000000000000000, -0.994166033836303 ) );
#379 = CARTESIAN_POINT( '', ( 20845.3858328000, 119.261860037000, 2050.28148817000 ) );
#380 = DIRECTION( '', ( -0.107860544993033, 0.000000000000000, 0.994166033836303 ) );
#381 = DIRECTION( '', ( 0.994166033836303, 0.000000000000000, 0.107860544993033 ) );
#382 = DIRECTION( '', ( 0.107860544993033, -0.000000000000000, -0.994166033836303 ) );
#383 = CARTESIAN_POINT( '', ( 20846.2487172000, 119.261860037000, 2042.32815990000 ) );
#384 = DIRECTION( '', ( -0.107860544993033, 0.000000000000000, 0.994166033836303 ) );
#385 = DIRECTION( '', ( 0.994166033836303, 0.000000000000000, 0.107860544993033 ) );
#386 = CARTESIAN_POINT( '', ( 20846.2487172000, 119.261860037000, 2042.32815990000 ) );
#387 = DIRECTION( '', ( -0.107860544993033, 0.000000000000000, 0.994166033836303 ) );
#388 = DIRECTION( '', ( 0.994166033836303, 0.000000000000000, 0.107860544993033 ) );
#389 = DIRECTION( '', ( 0.107860544993033, -0.000000000000000, -0.994166033836303 ) );
#390 = CARTESIAN_POINT( '', ( 20846.8743083000, 119.261860037000, 2036.56199691000 ) );
#391 = DIRECTION( '', ( -0.107860544993033, -4.87110352054149E-015, 0.994166033836303 ) );
#392 = DIRECTION( '', ( 0.994166033836303, -5.28483032573206E-016, 0.107860544993033 ) );
#393 = DIRECTION( '', ( 0.107860544993033, -0.000000000000000, -0.994166033836303 ) );
#394 = DIRECTION( '', ( 0.994166033836303, -0.000000000000000, 0.107860544993033 ) );
#395 = DIRECTION( '', ( -0.000000000000000, -1.00000000000000, -0.000000000000000 ) );
#396 = DIRECTION( '', ( -0.994166033836303, -0.000000000000000, -0.107860544993033 ) );
#397 = DIRECTION( '', ( -0.000000000000000, 1.00000000000000, -0.000000000000000 ) );
#398 = CARTESIAN_POINT( '', ( 20847.1978900000, 119.261860037000, 2033.57949881000 ) );
#399 = DIRECTION( '', ( -0.107860544993033, -4.87110352054149E-015, 0.994166033836303 ) );
#400 = DIRECTION( '', ( 0.994166033836303, -5.28483032573206E-016, 0.107860544993033 ) );
#401 = CARTESIAN_POINT( '', ( 20847.1978900000, 119.261860037000, 2033.57949881000 ) );
#402 = DIRECTION( '', ( -0.107860544993033, -4.85722573274148E-015, 0.994166033836303 ) );
#403 = DIRECTION( '', ( 0.994166033836303, -5.26977382908602E-016, 0.107860544993033 ) );
#404 = DIRECTION( '', ( -0.107860544993033, 0.000000000000000, 0.994166033836303 ) );
#405 = DIRECTION( '', ( -0.107860544993033, 0.000000000000000, 0.994166033836303 ) );
#406 = DIRECTION( '', ( -0.000000000000000, 1.00000000000000, -0.000000000000000 ) );
#407 = DIRECTION( '', ( -0.107860544993033, 0.000000000000000, 0.994166033836303 ) );
#408 = DIRECTION( '', ( -0.994166033836303, -0.000000000000000, -0.107860544993033 ) );
#409 = DIRECTION( '', ( -0.107860544993033, 0.000000000000000, 0.994166033836303 ) );
#410 = DIRECTION( '', ( 0.994166033836303, -0.000000000000000, 0.107860544993033 ) );
#411 = DIRECTION( '', ( -0.000000000000000, -1.00000000000000, -0.000000000000000 ) );
#412 = CARTESIAN_POINT( '', ( 20845.3858328000, 119.261860037000, 2050.28148817000 ) );
#413 = DIRECTION( '', ( -0.107860544993033, 0.000000000000000, 0.994166033836303 ) );
#414 = DIRECTION( '', ( 0.994166033836303, 0.000000000000000, 0.107860544993033 ) );
#415 = CARTESIAN_POINT( '', ( 20846.2487172000, 119.261860037000, 2042.32815990000 ) );
#416 = DIRECTION( '', ( -0.107860544993033, 0.000000000000000, 0.994166033836303 ) );
#417 = DIRECTION( '', ( 0.994166033836303, 0.000000000000000, 0.107860544993033 ) );
#418 = CARTESIAN_POINT( '', ( 20846.2487172000, 119.261860037000, 2042.32815990000 ) );
#419 = DIRECTION( '', ( -0.107860544993033, 0.000000000000000, 0.994166033836303 ) );
#420 = DIRECTION( '', ( 0.994166033836303, 0.000000000000000, 0.107860544993033 ) );
#421 = CARTESIAN_POINT( '', ( 20846.8743083000, 153.461860034000, 2036.56199691000 ) );
#422 = DIRECTION( '', ( -0.994166033836304, 1.16668901148035E-013, -0.107860544993032 ) );
#423 = DIRECTION( '', ( 0.107860544993032, 1.07535390938248E-012, -0.994166033836303 ) );
#424 = CARTESIAN_POINT( '', ( 20846.8743083000, 119.261860037000, 2036.56199691000 ) );
#425 = DIRECTION( '', ( -0.107860544993033, -4.85722573274148E-015, 0.994166033836303 ) );
#426 = DIRECTION( '', ( 0.994166033836303, -5.26977382908602E-016, 0.107860544993033 ) );
#427 = CARTESIAN_POINT( '', ( 20846.8743083000, 85.0618600401000, 2036.56199691000 ) );
#428 = DIRECTION( '', ( 0.994166033836304, 1.15892541026035E-013, 0.107860544993032 ) );
#429 = DIRECTION( '', ( 0.107860544993032, -1.06819808735907E-012, -0.994166033836303 ) );
ENDSEC;
END-ISO-10303-21;
