ISO-10303-21;
HEADER;
/* Generated by software containing ST-Developer
 * from STEP Tools, Inc. (www.steptools.com) 
 */

FILE_DESCRIPTION(
/* description */ (''),
/* implementation_level */ '2;1');

FILE_NAME(
/* name */ 'entretoise_roue_avant v4.step',
/* time_stamp */ '2023-07-02T11:25:56+02:00',
/* author */ (''),
/* organization */ (''),
/* preprocessor_version */ 'ST-DEVELOPER v19.2',
/* originating_system */ 'Autodesk Translation Framework v12.6.0.85',
/* authorisation */ '');

FILE_SCHEMA (('AUTOMOTIVE_DESIGN { 1 0 10303 214 3 1 1 }'));
ENDSEC;

DATA;
#10=MECHANICAL_DESIGN_GEOMETRIC_PRESENTATION_REPRESENTATION('',(#13),#240);
#11=SHAPE_REPRESENTATION_RELATIONSHIP('SRR','None',#247,#12);
#12=ADVANCED_BREP_SHAPE_REPRESENTATION('',(#14),#239);
#13=STYLED_ITEM('',(#256),#14);
#14=MANIFOLD_SOLID_BREP('Corps2',#129);
#15=FACE_BOUND('',#39,.T.);
#16=FACE_BOUND('',#42,.T.);
#17=FACE_BOUND('',#44,.T.);
#18=FACE_BOUND('',#48,.T.);
#19=PLANE('',#148);
#20=PLANE('',#153);
#21=PLANE('',#155);
#22=PLANE('',#160);
#23=CYLINDRICAL_SURFACE('',#146,20.);
#24=CYLINDRICAL_SURFACE('',#150,17.);
#25=CYLINDRICAL_SURFACE('',#157,12.6);
#26=CYLINDRICAL_SURFACE('',#159,16.);
#27=FACE_OUTER_BOUND('',#36,.T.);
#28=FACE_OUTER_BOUND('',#37,.T.);
#29=FACE_OUTER_BOUND('',#38,.T.);
#30=FACE_OUTER_BOUND('',#40,.T.);
#31=FACE_OUTER_BOUND('',#41,.T.);
#32=FACE_OUTER_BOUND('',#43,.T.);
#33=FACE_OUTER_BOUND('',#45,.T.);
#34=FACE_OUTER_BOUND('',#46,.T.);
#35=FACE_OUTER_BOUND('',#47,.T.);
#36=EDGE_LOOP('',(#91,#92,#93,#94));
#37=EDGE_LOOP('',(#95,#96,#97,#98));
#38=EDGE_LOOP('',(#99));
#39=EDGE_LOOP('',(#100));
#40=EDGE_LOOP('',(#101,#102,#103,#104));
#41=EDGE_LOOP('',(#105));
#42=EDGE_LOOP('',(#106));
#43=EDGE_LOOP('',(#107));
#44=EDGE_LOOP('',(#108));
#45=EDGE_LOOP('',(#109,#110,#111,#112));
#46=EDGE_LOOP('',(#113,#114,#115,#116));
#47=EDGE_LOOP('',(#117));
#48=EDGE_LOOP('',(#118));
#49=LINE('',#209,#54);
#50=LINE('',#214,#55);
#51=LINE('',#222,#56);
#52=LINE('',#232,#57);
#53=LINE('',#235,#58);
#54=VECTOR('',#167,18.);
#55=VECTOR('',#174,20.);
#56=VECTOR('',#183,17.);
#57=VECTOR('',#196,12.6);
#58=VECTOR('',#201,16.);
#59=CIRCLE('',#144,20.);
#60=CIRCLE('',#145,16.);
#61=CIRCLE('',#147,20.);
#62=CIRCLE('',#149,12.6);
#63=CIRCLE('',#151,17.);
#64=CIRCLE('',#152,17.);
#65=CIRCLE('',#154,16.);
#66=CIRCLE('',#156,16.);
#67=CIRCLE('',#158,12.6);
#68=VERTEX_POINT('',#206);
#69=VERTEX_POINT('',#208);
#70=VERTEX_POINT('',#212);
#71=VERTEX_POINT('',#216);
#72=VERTEX_POINT('',#219);
#73=VERTEX_POINT('',#221);
#74=VERTEX_POINT('',#225);
#75=VERTEX_POINT('',#228);
#76=VERTEX_POINT('',#231);
#77=EDGE_CURVE('',#68,#68,#59,.T.);
#78=EDGE_CURVE('',#68,#69,#49,.T.);
#79=EDGE_CURVE('',#69,#69,#60,.T.);
#80=EDGE_CURVE('',#70,#70,#61,.T.);
#81=EDGE_CURVE('',#70,#68,#50,.T.);
#82=EDGE_CURVE('',#71,#71,#62,.T.);
#83=EDGE_CURVE('',#72,#72,#63,.T.);
#84=EDGE_CURVE('',#72,#73,#51,.T.);
#85=EDGE_CURVE('',#73,#73,#64,.T.);
#86=EDGE_CURVE('',#74,#74,#65,.T.);
#87=EDGE_CURVE('',#75,#75,#66,.T.);
#88=EDGE_CURVE('',#71,#76,#52,.T.);
#89=EDGE_CURVE('',#76,#76,#67,.T.);
#90=EDGE_CURVE('',#75,#74,#53,.T.);
#91=ORIENTED_EDGE('',*,*,#77,.T.);
#92=ORIENTED_EDGE('',*,*,#78,.T.);
#93=ORIENTED_EDGE('',*,*,#79,.T.);
#94=ORIENTED_EDGE('',*,*,#78,.F.);
#95=ORIENTED_EDGE('',*,*,#80,.F.);
#96=ORIENTED_EDGE('',*,*,#81,.T.);
#97=ORIENTED_EDGE('',*,*,#77,.F.);
#98=ORIENTED_EDGE('',*,*,#81,.F.);
#99=ORIENTED_EDGE('',*,*,#79,.F.);
#100=ORIENTED_EDGE('',*,*,#82,.T.);
#101=ORIENTED_EDGE('',*,*,#83,.F.);
#102=ORIENTED_EDGE('',*,*,#84,.T.);
#103=ORIENTED_EDGE('',*,*,#85,.T.);
#104=ORIENTED_EDGE('',*,*,#84,.F.);
#105=ORIENTED_EDGE('',*,*,#83,.T.);
#106=ORIENTED_EDGE('',*,*,#86,.F.);
#107=ORIENTED_EDGE('',*,*,#80,.T.);
#108=ORIENTED_EDGE('',*,*,#87,.F.);
#109=ORIENTED_EDGE('',*,*,#82,.F.);
#110=ORIENTED_EDGE('',*,*,#88,.T.);
#111=ORIENTED_EDGE('',*,*,#89,.T.);
#112=ORIENTED_EDGE('',*,*,#88,.F.);
#113=ORIENTED_EDGE('',*,*,#87,.T.);
#114=ORIENTED_EDGE('',*,*,#90,.T.);
#115=ORIENTED_EDGE('',*,*,#86,.T.);
#116=ORIENTED_EDGE('',*,*,#90,.F.);
#117=ORIENTED_EDGE('',*,*,#85,.F.);
#118=ORIENTED_EDGE('',*,*,#89,.F.);
#119=CONICAL_SURFACE('',#143,18.,0.785398163397448);
#120=ADVANCED_FACE('',(#27),#119,.T.);
#121=ADVANCED_FACE('',(#28),#23,.T.);
#122=ADVANCED_FACE('',(#29,#15),#19,.T.);
#123=ADVANCED_FACE('',(#30),#24,.T.);
#124=ADVANCED_FACE('',(#31,#16),#20,.T.);
#125=ADVANCED_FACE('',(#32,#17),#21,.F.);
#126=ADVANCED_FACE('',(#33),#25,.F.);
#127=ADVANCED_FACE('',(#34),#26,.T.);
#128=ADVANCED_FACE('',(#35,#18),#22,.F.);
#129=CLOSED_SHELL('',(#120,#121,#122,#123,#124,#125,#126,#127,#128));
#130=DERIVED_UNIT_ELEMENT(#132,1.);
#131=DERIVED_UNIT_ELEMENT(#242,-3.);
#132=(
MASS_UNIT()
NAMED_UNIT(*)
SI_UNIT(.KILO.,.GRAM.)
);
#133=DERIVED_UNIT((#130,#131));
#134=MEASURE_REPRESENTATION_ITEM('density measure',
POSITIVE_RATIO_MEASURE(7850.),#133);
#135=PROPERTY_DEFINITION_REPRESENTATION(#140,#137);
#136=PROPERTY_DEFINITION_REPRESENTATION(#141,#138);
#137=REPRESENTATION('material name',(#139),#239);
#138=REPRESENTATION('density',(#134),#239);
#139=DESCRIPTIVE_REPRESENTATION_ITEM('Acier','Acier');
#140=PROPERTY_DEFINITION('material property','material name',#249);
#141=PROPERTY_DEFINITION('material property','density of part',#249);
#142=AXIS2_PLACEMENT_3D('',#204,#161,#162);
#143=AXIS2_PLACEMENT_3D('',#205,#163,#164);
#144=AXIS2_PLACEMENT_3D('',#207,#165,#166);
#145=AXIS2_PLACEMENT_3D('',#210,#168,#169);
#146=AXIS2_PLACEMENT_3D('',#211,#170,#171);
#147=AXIS2_PLACEMENT_3D('',#213,#172,#173);
#148=AXIS2_PLACEMENT_3D('',#215,#175,#176);
#149=AXIS2_PLACEMENT_3D('',#217,#177,#178);
#150=AXIS2_PLACEMENT_3D('',#218,#179,#180);
#151=AXIS2_PLACEMENT_3D('',#220,#181,#182);
#152=AXIS2_PLACEMENT_3D('',#223,#184,#185);
#153=AXIS2_PLACEMENT_3D('',#224,#186,#187);
#154=AXIS2_PLACEMENT_3D('',#226,#188,#189);
#155=AXIS2_PLACEMENT_3D('',#227,#190,#191);
#156=AXIS2_PLACEMENT_3D('',#229,#192,#193);
#157=AXIS2_PLACEMENT_3D('',#230,#194,#195);
#158=AXIS2_PLACEMENT_3D('',#233,#197,#198);
#159=AXIS2_PLACEMENT_3D('',#234,#199,#200);
#160=AXIS2_PLACEMENT_3D('',#236,#202,#203);
#161=DIRECTION('axis',(0.,0.,1.));
#162=DIRECTION('refdir',(1.,0.,0.));
#163=DIRECTION('center_axis',(0.,-1.,0.));
#164=DIRECTION('ref_axis',(1.,0.,0.));
#165=DIRECTION('center_axis',(0.,1.,0.));
#166=DIRECTION('ref_axis',(1.,0.,0.));
#167=DIRECTION('',(0.707106781186547,0.707106781186547,8.65956056235493E-17));
#168=DIRECTION('center_axis',(0.,-1.,0.));
#169=DIRECTION('ref_axis',(1.,0.,0.));
#170=DIRECTION('center_axis',(0.,-1.,0.));
#171=DIRECTION('ref_axis',(1.,0.,0.));
#172=DIRECTION('center_axis',(0.,-1.,0.));
#173=DIRECTION('ref_axis',(1.,0.,0.));
#174=DIRECTION('',(0.,1.,0.));
#175=DIRECTION('center_axis',(0.,1.,0.));
#176=DIRECTION('ref_axis',(1.,0.,0.));
#177=DIRECTION('center_axis',(0.,-1.,0.));
#178=DIRECTION('ref_axis',(1.,0.,0.));
#179=DIRECTION('center_axis',(0.,1.,0.));
#180=DIRECTION('ref_axis',(1.,0.,0.));
#181=DIRECTION('center_axis',(0.,1.,0.));
#182=DIRECTION('ref_axis',(1.,0.,0.));
#183=DIRECTION('',(0.,-1.,0.));
#184=DIRECTION('center_axis',(0.,1.,0.));
#185=DIRECTION('ref_axis',(1.,0.,0.));
#186=DIRECTION('center_axis',(0.,1.,0.));
#187=DIRECTION('ref_axis',(1.,0.,0.));
#188=DIRECTION('center_axis',(0.,1.,0.));
#189=DIRECTION('ref_axis',(1.,0.,0.));
#190=DIRECTION('center_axis',(0.,1.,0.));
#191=DIRECTION('ref_axis',(0.,0.,1.));
#192=DIRECTION('center_axis',(0.,-1.,0.));
#193=DIRECTION('ref_axis',(1.,0.,0.));
#194=DIRECTION('center_axis',(0.,1.,0.));
#195=DIRECTION('ref_axis',(1.,0.,0.));
#196=DIRECTION('',(0.,-1.,0.));
#197=DIRECTION('center_axis',(0.,-1.,0.));
#198=DIRECTION('ref_axis',(1.,0.,0.));
#199=DIRECTION('center_axis',(0.,1.,0.));
#200=DIRECTION('ref_axis',(1.,0.,0.));
#201=DIRECTION('',(0.,-1.,0.));
#202=DIRECTION('center_axis',(0.,1.,0.));
#203=DIRECTION('ref_axis',(1.,0.,0.));
#204=CARTESIAN_POINT('',(0.,0.,0.));
#205=CARTESIAN_POINT('Origin',(0.,19.,0.));
#206=CARTESIAN_POINT('',(-20.,17.,2.44929359829471E-15));
#207=CARTESIAN_POINT('Origin',(0.,17.,0.));
#208=CARTESIAN_POINT('',(-16.,21.,-1.95943487863577E-15));
#209=CARTESIAN_POINT('',(-18.,19.,-2.20436423846524E-15));
#210=CARTESIAN_POINT('Origin',(0.,21.,0.));
#211=CARTESIAN_POINT('Origin',(0.,21.,0.));
#212=CARTESIAN_POINT('',(-20.,10.,-2.44929359829471E-15));
#213=CARTESIAN_POINT('Origin',(0.,10.,0.));
#214=CARTESIAN_POINT('',(-20.,21.,-2.44929359829471E-15));
#215=CARTESIAN_POINT('Origin',(0.,21.,0.));
#216=CARTESIAN_POINT('',(-12.6,21.,1.54305496692567E-15));
#217=CARTESIAN_POINT('Origin',(0.,21.,0.));
#218=CARTESIAN_POINT('Origin',(0.,0.,0.));
#219=CARTESIAN_POINT('',(-17.,1.5,2.0818995585505E-15));
#220=CARTESIAN_POINT('Origin',(0.,1.5,0.));
#221=CARTESIAN_POINT('',(-17.,0.,2.0818995585505E-15));
#222=CARTESIAN_POINT('',(-17.,0.,2.0818995585505E-15));
#223=CARTESIAN_POINT('Origin',(0.,0.,0.));
#224=CARTESIAN_POINT('Origin',(0.,1.5,0.));
#225=CARTESIAN_POINT('',(-16.,1.5,1.95943487863577E-15));
#226=CARTESIAN_POINT('Origin',(0.,1.5,0.));
#227=CARTESIAN_POINT('Origin',(0.,10.,0.));
#228=CARTESIAN_POINT('',(-16.,10.,1.95943487863577E-15));
#229=CARTESIAN_POINT('Origin',(0.,10.,0.));
#230=CARTESIAN_POINT('Origin',(0.,0.,0.));
#231=CARTESIAN_POINT('',(-12.6,0.,1.54305496692567E-15));
#232=CARTESIAN_POINT('',(-12.6,0.,1.54305496692567E-15));
#233=CARTESIAN_POINT('Origin',(0.,0.,0.));
#234=CARTESIAN_POINT('Origin',(0.,0.,0.));
#235=CARTESIAN_POINT('',(-16.,0.,1.95943487863577E-15));
#236=CARTESIAN_POINT('Origin',(0.,0.,0.));
#237=UNCERTAINTY_MEASURE_WITH_UNIT(LENGTH_MEASURE(0.01),#241,
'DISTANCE_ACCURACY_VALUE',
'Maximum model space distance between geometric entities at asserted c
onnectivities');
#238=UNCERTAINTY_MEASURE_WITH_UNIT(LENGTH_MEASURE(0.01),#241,
'DISTANCE_ACCURACY_VALUE',
'Maximum model space distance between geometric entities at asserted c
onnectivities');
#239=(
GEOMETRIC_REPRESENTATION_CONTEXT(3)
GLOBAL_UNCERTAINTY_ASSIGNED_CONTEXT((#237))
GLOBAL_UNIT_ASSIGNED_CONTEXT((#241,#243,#244))
REPRESENTATION_CONTEXT('','3D')
);
#240=(
GEOMETRIC_REPRESENTATION_CONTEXT(3)
GLOBAL_UNCERTAINTY_ASSIGNED_CONTEXT((#238))
GLOBAL_UNIT_ASSIGNED_CONTEXT((#241,#243,#244))
REPRESENTATION_CONTEXT('','3D')
);
#241=(
LENGTH_UNIT()
NAMED_UNIT(*)
SI_UNIT(.MILLI.,.METRE.)
);
#242=(
LENGTH_UNIT()
NAMED_UNIT(*)
SI_UNIT($,.METRE.)
);
#243=(
NAMED_UNIT(*)
PLANE_ANGLE_UNIT()
SI_UNIT($,.RADIAN.)
);
#244=(
NAMED_UNIT(*)
SI_UNIT($,.STERADIAN.)
SOLID_ANGLE_UNIT()
);
#245=SHAPE_DEFINITION_REPRESENTATION(#246,#247);
#246=PRODUCT_DEFINITION_SHAPE('',$,#249);
#247=SHAPE_REPRESENTATION('',(#142),#239);
#248=PRODUCT_DEFINITION_CONTEXT('part definition',#253,'design');
#249=PRODUCT_DEFINITION('entretoise_roue_avant',
'entretoise_roue_avant v4',#250,#248);
#250=PRODUCT_DEFINITION_FORMATION('',$,#255);
#251=PRODUCT_RELATED_PRODUCT_CATEGORY('entretoise_roue_avant v4',
'entretoise_roue_avant v4',(#255));
#252=APPLICATION_PROTOCOL_DEFINITION('international standard',
'automotive_design',2009,#253);
#253=APPLICATION_CONTEXT(
'Core Data for Automotive Mechanical Design Process');
#254=PRODUCT_CONTEXT('part definition',#253,'mechanical');
#255=PRODUCT('entretoise_roue_avant','entretoise_roue_avant v4',$,(#254));
#256=PRESENTATION_STYLE_ASSIGNMENT((#257));
#257=SURFACE_STYLE_USAGE(.BOTH.,#258);
#258=SURFACE_SIDE_STYLE('',(#259));
#259=SURFACE_STYLE_FILL_AREA(#260);
#260=FILL_AREA_STYLE('Acier - Satin\X\E9',(#261));
#261=FILL_AREA_STYLE_COLOUR('Acier - Satin\X\E9',#262);
#262=COLOUR_RGB('Acier - Satin\X\E9',0.627450980392157,0.627450980392157,
0.627450980392157);
ENDSEC;
END-ISO-10303-21;
