ISO-10303-21;
HEADER;
FILE_DESCRIPTION (( 'STEP AP214' ),
    '1' );
FILE_NAME ('Entretoise.STEP',
    '2023-07-03T13:35:44',
    ( '' ),
    ( '' ),
    'SwSTEP 2.0',
    'SolidWorks 2014',
    '' );
FILE_SCHEMA (( 'AUTOMOTIVE_DESIGN' ));
ENDSEC;

DATA;
#1 = AXIS2_PLACEMENT_3D ( 'NONE', #270, #217, #55 ) ;
#2 = ORIENTED_EDGE ( 'NONE', *, *, #302, .F. ) ;
#3 = ORIENTED_EDGE ( 'NONE', *, *, #207, .T. ) ;
#4 = ORIENTED_EDGE ( 'NONE', *, *, #207, .F. ) ;
#5 = LINE ( 'NONE', #231, #136 ) ;
#6 = DIRECTION ( 'NONE',  ( 0.0000000000000000000, 1.000000000000000000, 0.0000000000000000000 ) ) ;
#7 = DIRECTION ( 'NONE',  ( 0.0000000000000000000, 0.0000000000000000000, -1.000000000000000000 ) ) ;
#8 = AXIS2_PLACEMENT_3D ( 'NONE', #21, #177, #95 ) ;
#9 = CARTESIAN_POINT ( 'NONE',  ( 0.0000000000000000000, 20.00000000000000400, 0.0000000000000000000 ) ) ;
#10 = VERTEX_POINT ( 'NONE', #289 ) ;
#11 = CARTESIAN_POINT ( 'NONE',  ( 0.0000000000000000000, 0.0000000000000000000, 0.0000000000000000000 ) ) ;
#12 = DIRECTION ( 'NONE',  ( 1.000000000000000000, 0.0000000000000000000, 0.0000000000000000000 ) ) ;
#13 = VERTEX_POINT ( 'NONE', #73 ) ;
#14 = EDGE_CURVE ( 'NONE', #321, #13, #275, .T. ) ;
#15 = ORIENTED_EDGE ( 'NONE', *, *, #151, .F. ) ;
#16 = DIRECTION ( 'NONE',  ( 0.0000000000000000000, 0.0000000000000000000, -1.000000000000000000 ) ) ;
#17 = ADVANCED_FACE ( 'NONE', ( #125 ), #265, .F. ) ;
#18 = DIRECTION ( 'NONE',  ( 0.0000000000000000000, 0.0000000000000000000, 1.000000000000000000 ) ) ;
#19 = CARTESIAN_POINT ( 'NONE',  ( 6.123233995736766300E-016, 0.0000000000000000000, 5.000000000000000000 ) ) ;
#20 = ORIENTED_EDGE ( 'NONE', *, *, #47, .T. ) ;
#21 = CARTESIAN_POINT ( 'NONE',  ( 0.0000000000000000000, 20.00000000000000400, 0.0000000000000000000 ) ) ;
#22 = CARTESIAN_POINT ( 'NONE',  ( 0.0000000000000000000, 150.0000000000000000, 0.0000000000000000000 ) ) ;
#23 = UNCERTAINTY_MEASURE_WITH_UNIT (LENGTH_MEASURE( 1.000000000000000100E-005 ), #132, 'distance_accuracy_value', 'NONE');
#24 = AXIS2_PLACEMENT_3D ( 'NONE', #312, #148, #176 ) ;
#25 = VERTEX_POINT ( 'NONE', #120 ) ;
#26 = ORIENTED_EDGE ( 'NONE', *, *, #243, .T. ) ;
#27 = EDGE_CURVE ( 'NONE', #271, #298, #347, .T. ) ;
#28 = DIRECTION ( 'NONE',  ( 0.0000000000000000000, 1.000000000000000000, 0.0000000000000000000 ) ) ;
#29 = CONICAL_SURFACE ( 'NONE', #160, 2.499999999999996400, 1.029744258676649200 ) ;
#30 = DIRECTION ( 'NONE',  ( 0.0000000000000000000, 1.000000000000000000, 0.0000000000000000000 ) ) ;
#31 = ORIENTED_EDGE ( 'NONE', *, *, #322, .T. ) ;
#32 = STYLED_ITEM ( 'NONE', ( #245 ), #303 ) ;
#33 = DIRECTION ( 'NONE',  ( 0.0000000000000000000, 0.0000000000000000000, -1.000000000000000000 ) ) ;
#34 = CIRCLE ( 'NONE', #290, 5.000000000000000000 ) ;
#35 = DIRECTION ( 'NONE',  ( 0.0000000000000000000, 0.0000000000000000000, 1.000000000000000000 ) ) ;
#36 = ORIENTED_EDGE ( 'NONE', *, *, #345, .F. ) ;
#37 = APPLICATION_CONTEXT ( 'automotive_design' ) ;
#38 = FACE_OUTER_BOUND ( 'NONE', #131, .T. ) ;
#39 = DIRECTION ( 'NONE',  ( 1.049727191138616700E-016, -0.5150380749100568200, 0.8571673007021107800 ) ) ;
#40 = AXIS2_PLACEMENT_3D ( 'NONE', #44, #200, #18 ) ;
#41 = DIRECTION ( 'NONE',  ( -0.0000000000000000000, 1.000000000000000000, -0.0000000000000000000 ) ) ;
#42 = CARTESIAN_POINT ( 'NONE',  ( 0.0000000000000000000, -1.249139735130297400E-015, -2.499999999999990200 ) ) ;
#43 = CARTESIAN_POINT ( 'NONE',  ( 0.0000000000000000000, 20.00000000000000400, 0.0000000000000000000 ) ) ;
#44 = CARTESIAN_POINT ( 'NONE',  ( 0.0000000000000000000, 130.0000000000000000, 0.0000000000000000000 ) ) ;
#45 = ORIENTED_EDGE ( 'NONE', *, *, #167, .T. ) ;
#46 = DIRECTION ( 'NONE',  ( -0.0000000000000000000, 1.000000000000000000, -0.0000000000000000000 ) ) ;
#47 = EDGE_CURVE ( 'NONE', #240, #71, #281, .T. ) ;
#48 = PRESENTATION_LAYER_ASSIGNMENT (  '', '', ( #32 ) ) ;
#49 = AXIS2_PLACEMENT_3D ( 'NONE', #337, #252, #196 ) ;
#50 = ORIENTED_EDGE ( 'NONE', *, *, #222, .F. ) ;
#51 = AXIS2_PLACEMENT_3D ( 'NONE', #155, #6, #183 ) ;
#52 = COLOUR_RGB ( '',0.7921568627450980000, 0.8196078431372548800, 0.9333333333333333500 ) ;
#53 = STYLED_ITEM ( 'NONE', ( #121 ), #137 ) ;
#54 = DIRECTION ( 'NONE',  ( -0.0000000000000000000, -1.000000000000000000, -0.0000000000000000000 ) ) ;
#55 = DIRECTION ( 'NONE',  ( 0.0000000000000000000, -0.0000000000000000000, 1.000000000000000000 ) ) ;
#56 = VERTEX_POINT ( 'NONE', #344 ) ;
#57 = ORIENTED_EDGE ( 'NONE', *, *, #184, .F. ) ;
#58 = FILL_AREA_STYLE_COLOUR ( '', #141 ) ;
#59 = EDGE_CURVE ( 'NONE', #150, #10, #60, .T. ) ;
#60 = CIRCLE ( 'NONE', #296, 2.499999999999990200 ) ;
#61 = CIRCLE ( 'NONE', #74, 2.499999999999986700 ) ;
#62 = MECHANICAL_DESIGN_GEOMETRIC_PRESENTATION_REPRESENTATION (  '', ( #32 ), #110 ) ;
#63 = DIRECTION ( 'NONE',  ( -0.0000000000000000000, 1.000000000000000000, -0.0000000000000000000 ) ) ;
#64 = ORIENTED_EDGE ( 'NONE', *, *, #14, .F. ) ;
#65 = EDGE_LOOP ( 'NONE', ( #149, #225, #124, #154 ) ) ;
#66 = AXIS2_PLACEMENT_3D ( 'NONE', #140, #306, #114 ) ;
#67 = ADVANCED_FACE ( 'NONE', ( #204 ), #126, .F. ) ;
#68 = DIRECTION ( 'NONE',  ( 0.0000000000000000000, 0.0000000000000000000, 1.000000000000000000 ) ) ;
#69 = CARTESIAN_POINT ( 'NONE',  ( 0.0000000000000000000, 130.0000000000000000, 2.499999999999996400 ) ) ;
#70 = FACE_BOUND ( 'NONE', #286, .T. ) ;
#71 = VERTEX_POINT ( 'NONE', #232 ) ;
#72 = FACE_OUTER_BOUND ( 'NONE', #98, .T. ) ;
#73 = CARTESIAN_POINT ( 'NONE',  ( 0.0000000000000000000, 150.0000000000000000, -5.000000000000000000 ) ) ;
#74 = AXIS2_PLACEMENT_3D ( 'NONE', #43, #197, #16 ) ;
#75 = ORIENTED_EDGE ( 'NONE', *, *, #77, .T. ) ;
#76 = VERTEX_POINT ( 'NONE', #201 ) ;
#77 = EDGE_CURVE ( 'NONE', #240, #175, #211, .T. ) ;
#78 = UNCERTAINTY_MEASURE_WITH_UNIT (LENGTH_MEASURE( 1.000000000000000100E-005 ), #310, 'distance_accuracy_value', 'NONE');
#79 = CARTESIAN_POINT ( 'NONE',  ( 0.0000000000000000000, 0.0000000000000000000, 0.0000000000000000000 ) ) ;
#80 = ORIENTED_EDGE ( 'NONE', *, *, #259, .T. ) ;
#81 = SHAPE_DEFINITION_REPRESENTATION ( #94, #303 ) ;
#82 = SURFACE_SIDE_STYLE ('',( #305 ) ) ;
#83 = LINE ( 'NONE', #194, #254 ) ;
#84 = EDGE_LOOP ( 'NONE', ( #2, #26, #80, #340 ) ) ;
#85 = CARTESIAN_POINT ( 'NONE',  ( -5.266508213502314400E-015, 128.4978484524311000, 0.0000000000000000000 ) ) ;
#86 = CARTESIAN_POINT ( 'NONE',  ( 0.0000000000000000000, 0.0000000000000000000, 0.0000000000000000000 ) ) ;
#87 = CONICAL_SURFACE ( 'NONE', #236, 2.499999999999986700, 1.029744258676651400 ) ;
#88 = AXIS2_PLACEMENT_3D ( 'NONE', #147, #283, #68 ) ;
#89 = ORIENTED_EDGE ( 'NONE', *, *, #113, .F. ) ;
#90 = FILL_AREA_STYLE_COLOUR ( '', #52 ) ;
#91 = ADVANCED_FACE ( 'NONE', ( #72 ), #191, .F. ) ;
#92 = ORIENTED_EDGE ( 'NONE', *, *, #345, .T. ) ;
#93 = DIRECTION ( 'NONE',  ( -0.0000000000000000000, -1.000000000000000000, -0.0000000000000000000 ) ) ;
#94 = PRODUCT_DEFINITION_SHAPE ( 'NONE', 'NONE',  #122 ) ;
#95 = DIRECTION ( 'NONE',  ( 0.0000000000000000000, 0.0000000000000000000, -1.000000000000000000 ) ) ;
#96 = EDGE_CURVE ( 'NONE', #175, #71, #266, .T. ) ;
#97 = VECTOR ( 'NONE', #39, 1000.000000000000000 ) ;
#98 = EDGE_LOOP ( 'NONE', ( #233, #75, #280 ) ) ;
#99 = CIRCLE ( 'NONE', #251, 2.499999999999986700 ) ;
#100 = EDGE_LOOP ( 'NONE', ( #152, #198 ) ) ;
#101 = CARTESIAN_POINT ( 'NONE',  ( 0.0000000000000000000, 150.0000000000000000, 2.499999999999990200 ) ) ;
#102 = AXIS2_PLACEMENT_3D ( 'NONE', #79, #165, #12 ) ;
#103 = ORIENTED_EDGE ( 'NONE', *, *, #302, .T. ) ;
#104 = DIRECTION ( 'NONE',  ( -0.0000000000000000000, -1.000000000000000000, -0.0000000000000000000 ) ) ;
#105 = PRESENTATION_LAYER_ASSIGNMENT (  '', '', ( #53 ) ) ;
#106 = CARTESIAN_POINT ( 'NONE',  ( 6.123233995736766300E-016, 150.0000000000000000, 5.000000000000000000 ) ) ;
#107 = CARTESIAN_POINT ( 'NONE',  ( 6.123233995736766300E-016, 150.0000000000000000, 5.000000000000000000 ) ) ;
#108 = VERTEX_POINT ( 'NONE', #19 ) ;
#109 =( LENGTH_UNIT ( ) NAMED_UNIT ( * ) SI_UNIT ( .MILLI., .METRE. ) );
#110 =( GEOMETRIC_REPRESENTATION_CONTEXT ( 3 ) GLOBAL_UNCERTAINTY_ASSIGNED_CONTEXT ( ( #241 ) ) GLOBAL_UNIT_ASSIGNED_CONTEXT ( ( #109, #300, #134 ) ) REPRESENTATION_CONTEXT ( 'NONE', 'WORKASPACE' ) );
#111 = VECTOR ( 'NONE', #264, 1000.000000000000000 ) ;
#112 = VECTOR ( 'NONE', #299, 1000.000000000000000 ) ;
#113 = EDGE_CURVE ( 'NONE', #175, #271, #5, .T. ) ;
#114 = DIRECTION ( 'NONE',  ( 0.0000000000000000000, 0.0000000000000000000, 1.000000000000000000 ) ) ;
#115 = DIRECTION ( 'NONE',  ( 0.0000000000000000000, 0.0000000000000000000, 1.000000000000000000 ) ) ;
#116 =( NAMED_UNIT ( * ) PLANE_ANGLE_UNIT ( ) SI_UNIT ( $, .RADIAN. ) );
#117 = ADVANCED_FACE ( 'NONE', ( #348 ), #333, .F. ) ;
#118 = DIRECTION ( 'NONE',  ( 0.0000000000000000000, 0.0000000000000000000, 1.000000000000000000 ) ) ;
#119 = ORIENTED_EDGE ( 'NONE', *, *, #249, .T. ) ;
#120 = CARTESIAN_POINT ( 'NONE',  ( 0.0000000000000000000, 20.00000000000000400, -2.499999999999986700 ) ) ;
#121 = PRESENTATION_STYLE_ASSIGNMENT (( #145 ) ) ;
#122 = PRODUCT_DEFINITION ( 'UNKNOWN', '', #138, #250 ) ;
#123 = MECHANICAL_DESIGN_GEOMETRIC_PRESENTATION_REPRESENTATION (  '', ( #53 ), #142 ) ;
#124 = ORIENTED_EDGE ( 'NONE', *, *, #234, .T. ) ;
#125 = FACE_OUTER_BOUND ( 'NONE', #84, .T. ) ;
#126 = CONICAL_SURFACE ( 'NONE', #8, 2.499999999999986700, 1.029744258676651400 ) ;
#127 = CARTESIAN_POINT ( 'NONE',  ( 0.0000000000000000000, 0.0000000000000000000, 0.0000000000000000000 ) ) ;
#128 = EDGE_CURVE ( 'NONE', #25, #56, #61, .T. ) ;
#129 = DIRECTION ( 'NONE',  ( -0.0000000000000000000, -1.000000000000000000, -0.0000000000000000000 ) ) ;
#130 = DIRECTION ( 'NONE',  ( -0.0000000000000000000, -1.000000000000000000, -0.0000000000000000000 ) ) ;
#131 = EDGE_LOOP ( 'NONE', ( #171, #238 ) ) ;
#132 =( LENGTH_UNIT ( ) NAMED_UNIT ( * ) SI_UNIT ( .MILLI., .METRE. ) );
#133 = AXIS2_PLACEMENT_3D ( 'NONE', #86, #334, #278 ) ;
#134 =( NAMED_UNIT ( * ) SI_UNIT ( $, .STERADIAN. ) SOLID_ANGLE_UNIT ( ) );
#135 = ORIENTED_EDGE ( 'NONE', *, *, #263, .F. ) ;
#136 = VECTOR ( 'NONE', #342, 1000.000000000000000 ) ;
#137 = MANIFOLD_SOLID_BREP ( 'Trou pour taraudage pour trou taraudé M63', #144 ) ;
#138 = PRODUCT_DEFINITION_FORMATION_WITH_SPECIFIED_SOURCE ( 'ANY', '', #261, .NOT_KNOWN. ) ;
#139 = CARTESIAN_POINT ( 'NONE',  ( 0.0000000000000000000, 0.0000000000000000000, -2.499999999999988500 ) ) ;
#140 = CARTESIAN_POINT ( 'NONE',  ( 0.0000000000000000000, 130.0000000000000000, 0.0000000000000000000 ) ) ;
#141 = COLOUR_RGB ( '',0.7921568627450980000, 0.8196078431372548800, 0.9333333333333333500 ) ;
#142 =( GEOMETRIC_REPRESENTATION_CONTEXT ( 3 ) GLOBAL_UNCERTAINTY_ASSIGNED_CONTEXT ( ( #78 ) ) GLOBAL_UNIT_ASSIGNED_CONTEXT ( ( #310, #116, #279 ) ) REPRESENTATION_CONTEXT ( 'NONE', 'WORKASPACE' ) );
#143 = CARTESIAN_POINT ( 'NONE',  ( 0.0000000000000000000, 150.0000000000000000, 0.0000000000000000000 ) ) ;
#144 = CLOSED_SHELL ( 'NONE', ( #17, #67, #146, #199, #282, #174, #341, #255, #91, #117, #311, #229 ) ) ;
#145 = SURFACE_STYLE_USAGE ( .BOTH. , #338 ) ;
#146 = ADVANCED_FACE ( 'NONE', ( #173 ), #332, .F. ) ;
#147 = CARTESIAN_POINT ( 'NONE',  ( 0.0000000000000000000, 150.0000000000000000, 0.0000000000000000000 ) ) ;
#148 = DIRECTION ( 'NONE',  ( -0.0000000000000000000, 1.000000000000000000, -0.0000000000000000000 ) ) ;
#149 = ORIENTED_EDGE ( 'NONE', *, *, #243, .F. ) ;
#150 = VERTEX_POINT ( 'NONE', #42 ) ;
#151 = EDGE_CURVE ( 'NONE', #298, #271, #242, .T. ) ;
#152 = ORIENTED_EDGE ( 'NONE', *, *, #249, .F. ) ;
#153 = VECTOR ( 'NONE', #130, 1000.000000000000000 ) ;
#154 = ORIENTED_EDGE ( 'NONE', *, *, #59, .T. ) ;
#155 = CARTESIAN_POINT ( 'NONE',  ( 0.0000000000000000000, 0.0000000000000000000, 0.0000000000000000000 ) ) ;
#156 = PRODUCT_RELATED_PRODUCT_CATEGORY ( 'part', '', ( #261 ) ) ;
#157 = LINE ( 'NONE', #107, #112 ) ;
#158 = CARTESIAN_POINT ( 'NONE',  ( 0.0000000000000000000, 150.0000000000000000, 0.0000000000000000000 ) ) ;
#159 = ORIENTED_EDGE ( 'NONE', *, *, #285, .T. ) ;
#160 = AXIS2_PLACEMENT_3D ( 'NONE', #170, #41, #336 ) ;
#161 = FACE_BOUND ( 'NONE', #272, .T. ) ;
#162 =( NAMED_UNIT ( * ) SI_UNIT ( $, .STERADIAN. ) SOLID_ANGLE_UNIT ( ) );
#163 = LINE ( 'NONE', #304, #111 ) ;
#164 = FACE_OUTER_BOUND ( 'NONE', #318, .T. ) ;
#165 = DIRECTION ( 'NONE',  ( 0.0000000000000000000, 0.0000000000000000000, 1.000000000000000000 ) ) ;
#166 = EDGE_LOOP ( 'NONE', ( #50, #3, #103 ) ) ;
#167 = EDGE_CURVE ( 'NONE', #71, #298, #274, .T. ) ;
#168 = LINE ( 'NONE', #223, #97 ) ;
#169 = DIRECTION ( 'NONE',  ( -0.0000000000000000000, -1.000000000000000000, -0.0000000000000000000 ) ) ;
#170 = CARTESIAN_POINT ( 'NONE',  ( 0.0000000000000000000, 130.0000000000000000, 0.0000000000000000000 ) ) ;
#171 = ORIENTED_EDGE ( 'NONE', *, *, #263, .T. ) ;
#172 = FILL_AREA_STYLE ('',( #90 ) ) ;
#173 = FACE_OUTER_BOUND ( 'NONE', #187, .T. ) ;
#174 = ADVANCED_FACE ( 'NONE', ( #237 ), #292, .T. ) ;
#175 = VERTEX_POINT ( 'NONE', #224 ) ;
#176 = DIRECTION ( 'NONE',  ( 0.0000000000000000000, 0.0000000000000000000, 1.000000000000000000 ) ) ;
#177 = DIRECTION ( 'NONE',  ( -0.0000000000000000000, -1.000000000000000000, -0.0000000000000000000 ) ) ;
#178 = DIRECTION ( 'NONE',  ( 0.0000000000000000000, 1.000000000000000000, 0.0000000000000000000 ) ) ;
#179 = AXIS2_PLACEMENT_3D ( 'NONE', #295, #129, #325 ) ;
#180 = ORIENTED_EDGE ( 'NONE', *, *, #113, .T. ) ;
#181 = AXIS2_PLACEMENT_3D ( 'NONE', #143, #308, #115 ) ;
#182 = EDGE_LOOP ( 'NONE', ( #36, #135, #159, #119 ) ) ;
#183 = DIRECTION ( 'NONE',  ( 0.0000000000000000000, 0.0000000000000000000, 1.000000000000000000 ) ) ;
#184 = EDGE_CURVE ( 'NONE', #71, #175, #220, .T. ) ;
#185 = CARTESIAN_POINT ( 'NONE',  ( 0.0000000000000000000, 150.0000000000000000, 0.0000000000000000000 ) ) ;
#186 = DIRECTION ( 'NONE',  ( 0.0000000000000000000, 1.000000000000000000, 0.0000000000000000000 ) ) ;
#187 = EDGE_LOOP ( 'NONE', ( #57, #45, #210, #89 ) ) ;
#188 = APPLICATION_PROTOCOL_DEFINITION ( 'draft international standard', 'automotive_design', 1998, #218 ) ;
#189 = EDGE_LOOP ( 'NONE', ( #313, #209, #180, #248 ) ) ;
#190 = PRODUCT_CONTEXT ( 'NONE', #218, 'mechanical' ) ;
#191 = CONICAL_SURFACE ( 'NONE', #24, 2.499999999999996400, 1.029744258676649200 ) ;
#192 = AXIS2_PLACEMENT_3D ( 'NONE', #127, #28, #212 ) ;
#193 = DIRECTION ( 'NONE',  ( 0.0000000000000000000, -0.5150380749100568200, -0.8571673007021107800 ) ) ;
#194 = CARTESIAN_POINT ( 'NONE',  ( 0.0000000000000000000, 20.00000000000000400, -2.499999999999986700 ) ) ;
#195 = AXIS2_PLACEMENT_3D ( 'NONE', #253, #227, #118 ) ;
#196 = DIRECTION ( 'NONE',  ( 0.0000000000000000000, 0.0000000000000000000, -1.000000000000000000 ) ) ;
#197 = DIRECTION ( 'NONE',  ( -0.0000000000000000000, -1.000000000000000000, -0.0000000000000000000 ) ) ;
#198 = ORIENTED_EDGE ( 'NONE', *, *, #322, .F. ) ;
#199 = ADVANCED_FACE ( 'NONE', ( #164 ), #29, .F. ) ;
#200 = DIRECTION ( 'NONE',  ( -0.0000000000000000000, 1.000000000000000000, -0.0000000000000000000 ) ) ;
#201 = CARTESIAN_POINT ( 'NONE',  ( 0.0000000000000000000, 0.0000000000000000000, -5.000000000000000000 ) ) ;
#202 = LINE ( 'NONE', #297, #153 ) ;
#203 = DIRECTION ( 'NONE',  ( 0.0000000000000000000, 0.0000000000000000000, 1.000000000000000000 ) ) ;
#204 = FACE_OUTER_BOUND ( 'NONE', #166, .T. ) ;
#205 = SURFACE_STYLE_FILL_AREA ( #172 ) ;
#206 = CARTESIAN_POINT ( 'NONE',  ( 0.0000000000000000000, 0.0000000000000000000, 0.0000000000000000000 ) ) ;
#207 = EDGE_CURVE ( 'NONE', #301, #56, #168, .T. ) ;
#208 = ORIENTED_EDGE ( 'NONE', *, *, #285, .F. ) ;
#209 = ORIENTED_EDGE ( 'NONE', *, *, #96, .F. ) ;
#210 = ORIENTED_EDGE ( 'NONE', *, *, #151, .T. ) ;
#211 = LINE ( 'NONE', #69, #276 ) ;
#212 = DIRECTION ( 'NONE',  ( 0.0000000000000000000, -0.0000000000000000000, 1.000000000000000000 ) ) ;
#213 = AXIS2_PLACEMENT_3D ( 'NONE', #185, #30, #214 ) ;
#214 = DIRECTION ( 'NONE',  ( 0.0000000000000000000, 0.0000000000000000000, 1.000000000000000000 ) ) ;
#215 = CARTESIAN_POINT ( 'NONE',  ( 0.0000000000000000000, 20.00000000000000400, 0.0000000000000000000 ) ) ;
#216 = EDGE_LOOP ( 'NONE', ( #64, #92, #31, #208 ) ) ;
#217 = DIRECTION ( 'NONE',  ( 0.0000000000000000000, 1.000000000000000000, 0.0000000000000000000 ) ) ;
#218 = APPLICATION_CONTEXT ( 'automotive_design' ) ;
#219 = APPLICATION_PROTOCOL_DEFINITION ( 'draft international standard', 'automotive_design', 1998, #37 ) ;
#220 = CIRCLE ( 'NONE', #66, 2.499999999999996400 ) ;
#221 = ORIENTED_EDGE ( 'NONE', *, *, #259, .F. ) ;
#222 = EDGE_CURVE ( 'NONE', #301, #25, #83, .T. ) ;
#223 = CARTESIAN_POINT ( 'NONE',  ( 3.061616997868366400E-016, 20.00000000000000400, 2.499999999999986700 ) ) ;
#224 = CARTESIAN_POINT ( 'NONE',  ( 0.0000000000000000000, 130.0000000000000000, 2.499999999999996400 ) ) ;
#225 = ORIENTED_EDGE ( 'NONE', *, *, #128, .F. ) ;
#226 = CARTESIAN_POINT ( 'NONE',  ( 3.061616997868375300E-016, 150.0000000000000000, -2.499999999999993300 ) ) ;
#227 = DIRECTION ( 'NONE',  ( -0.0000000000000000000, 1.000000000000000000, -0.0000000000000000000 ) ) ;
#228 = FACE_OUTER_BOUND ( 'NONE', #100, .T. ) ;
#229 = ADVANCED_FACE ( 'NONE', ( #315 ), #329, .F. ) ;
#230 = VECTOR ( 'NONE', #63, 1000.000000000000000 ) ;
#231 = CARTESIAN_POINT ( 'NONE',  ( 0.0000000000000000000, 150.0000000000000000, 2.499999999999993300 ) ) ;
#232 = CARTESIAN_POINT ( 'NONE',  ( 3.061616997868378700E-016, 130.0000000000000000, -2.499999999999996400 ) ) ;
#233 = ORIENTED_EDGE ( 'NONE', *, *, #47, .F. ) ;
#234 = EDGE_CURVE ( 'NONE', #25, #150, #323, .T. ) ;
#235 = DIRECTION ( 'NONE',  ( 0.0000000000000000000, 0.0000000000000000000, -1.000000000000000000 ) ) ;
#236 = AXIS2_PLACEMENT_3D ( 'NONE', #9, #104, #33 ) ;
#237 = FACE_OUTER_BOUND ( 'NONE', #182, .T. ) ;
#238 = ORIENTED_EDGE ( 'NONE', *, *, #14, .T. ) ;
#239 = CIRCLE ( 'NONE', #179, 2.499999999999990200 ) ;
#240 = VERTEX_POINT ( 'NONE', #85 ) ;
#241 = UNCERTAINTY_MEASURE_WITH_UNIT (LENGTH_MEASURE( 1.000000000000000100E-005 ), #109, 'distance_accuracy_value', 'NONE');
#242 = CIRCLE ( 'NONE', #181, 2.499999999999990200 ) ;
#243 = EDGE_CURVE ( 'NONE', #56, #10, #163, .T. ) ;
#244 = DIRECTION ( 'NONE',  ( 0.0000000000000000000, 0.0000000000000000000, -1.000000000000000000 ) ) ;
#245 = PRESENTATION_STYLE_ASSIGNMENT (( #273 ) ) ;
#246 = VECTOR ( 'NONE', #169, 1000.000000000000000 ) ;
#247 = FILL_AREA_STYLE ('',( #58 ) ) ;
#248 = ORIENTED_EDGE ( 'NONE', *, *, #27, .T. ) ;
#249 = EDGE_CURVE ( 'NONE', #76, #108, #260, .T. ) ;
#250 = PRODUCT_DEFINITION_CONTEXT ( 'detailed design', #37, 'design' ) ;
#251 = AXIS2_PLACEMENT_3D ( 'NONE', #215, #54, #244 ) ;
#252 = DIRECTION ( 'NONE',  ( -0.0000000000000000000, -1.000000000000000000, -0.0000000000000000000 ) ) ;
#253 = CARTESIAN_POINT ( 'NONE',  ( 0.0000000000000000000, 150.0000000000000000, 0.0000000000000000000 ) ) ;
#254 = VECTOR ( 'NONE', #193, 1000.000000000000000 ) ;
#255 = ADVANCED_FACE ( 'NONE', ( #70, #228 ), #294, .F. ) ;
#256 = ORIENTED_EDGE ( 'NONE', *, *, #128, .T. ) ;
#257 = DIRECTION ( 'NONE',  ( 0.0000000000000000000, 0.0000000000000000000, -1.000000000000000000 ) ) ;
#258 = CARTESIAN_POINT ( 'NONE',  ( 0.0000000000000000000, 150.0000000000000000, 0.0000000000000000000 ) ) ;
#259 = EDGE_CURVE ( 'NONE', #10, #150, #239, .T. ) ;
#260 = CIRCLE ( 'NONE', #51, 5.000000000000000000 ) ;
#261 = PRODUCT ( 'Entretoise', 'Entretoise', '', ( #190 ) ) ;
#262 = ORIENTED_EDGE ( 'NONE', *, *, #77, .F. ) ;
#263 = EDGE_CURVE ( 'NONE', #13, #321, #320, .T. ) ;
#264 = DIRECTION ( 'NONE',  ( -0.0000000000000000000, -1.000000000000000000, -0.0000000000000000000 ) ) ;
#265 = CYLINDRICAL_SURFACE ( 'NONE', #335, 2.499999999999988500 ) ;
#266 = CIRCLE ( 'NONE', #40, 2.499999999999996400 ) ;
#267 = DIRECTION ( 'NONE',  ( -0.0000000000000000000, -1.000000000000000000, -0.0000000000000000000 ) ) ;
#268 = AXIS2_PLACEMENT_3D ( 'NONE', #158, #267, #7 ) ;
#269 = FACE_OUTER_BOUND ( 'NONE', #216, .T. ) ;
#270 = CARTESIAN_POINT ( 'NONE',  ( 0.0000000000000000000, 150.0000000000000000, 0.0000000000000000000 ) ) ;
#271 = VERTEX_POINT ( 'NONE', #101 ) ;
#272 = EDGE_LOOP ( 'NONE', ( #293, #15 ) ) ;
#273 = SURFACE_STYLE_USAGE ( .BOTH. , #82 ) ;
#274 = LINE ( 'NONE', #226, #230 ) ;
#275 = CIRCLE ( 'NONE', #277, 5.000000000000000000 ) ;
#276 = VECTOR ( 'NONE', #343, 1000.000000000000000 ) ;
#277 = AXIS2_PLACEMENT_3D ( 'NONE', #22, #178, #346 ) ;
#278 = DIRECTION ( 'NONE',  ( 0.0000000000000000000, 0.0000000000000000000, -1.000000000000000000 ) ) ;
#279 =( NAMED_UNIT ( * ) SI_UNIT ( $, .STERADIAN. ) SOLID_ANGLE_UNIT ( ) );
#280 = ORIENTED_EDGE ( 'NONE', *, *, #96, .T. ) ;
#281 = LINE ( 'NONE', #288, #287 ) ;
#282 = ADVANCED_FACE ( 'NONE', ( #269 ), #319, .T. ) ;
#283 = DIRECTION ( 'NONE',  ( -0.0000000000000000000, 1.000000000000000000, -0.0000000000000000000 ) ) ;
#284 = CARTESIAN_POINT ( 'NONE',  ( 0.0000000000000000000, -1.249139735130297400E-015, 0.0000000000000000000 ) ) ;
#285 = EDGE_CURVE ( 'NONE', #13, #76, #202, .T. ) ;
#286 = EDGE_LOOP ( 'NONE', ( #331, #221 ) ) ;
#287 = VECTOR ( 'NONE', #314, 1000.000000000000000 ) ;
#288 = CARTESIAN_POINT ( 'NONE',  ( 3.061616997868378700E-016, 130.0000000000000000, -2.499999999999996400 ) ) ;
#289 = CARTESIAN_POINT ( 'NONE',  ( 3.061616997868370300E-016, -1.249139735130297400E-015, 2.499999999999990200 ) ) ;
#290 = AXIS2_PLACEMENT_3D ( 'NONE', #11, #186, #35 ) ;
#291 = ORIENTED_EDGE ( 'NONE', *, *, #184, .T. ) ;
#292 = CYLINDRICAL_SURFACE ( 'NONE', #49, 5.000000000000000000 ) ;
#293 = ORIENTED_EDGE ( 'NONE', *, *, #27, .F. ) ;
#294 = PLANE ( 'NONE',  #192 ) ;
#295 = CARTESIAN_POINT ( 'NONE',  ( 0.0000000000000000000, -1.249139735130297400E-015, 0.0000000000000000000 ) ) ;
#296 = AXIS2_PLACEMENT_3D ( 'NONE', #284, #93, #257 ) ;
#297 = CARTESIAN_POINT ( 'NONE',  ( 0.0000000000000000000, 150.0000000000000000, -5.000000000000000000 ) ) ;
#298 = VERTEX_POINT ( 'NONE', #327 ) ;
#299 = DIRECTION ( 'NONE',  ( -0.0000000000000000000, -1.000000000000000000, -0.0000000000000000000 ) ) ;
#300 =( NAMED_UNIT ( * ) PLANE_ANGLE_UNIT ( ) SI_UNIT ( $, .RADIAN. ) );
#301 = VERTEX_POINT ( 'NONE', #324 ) ;
#302 = EDGE_CURVE ( 'NONE', #56, #25, #99, .T. ) ;
#303 = ADVANCED_BREP_SHAPE_REPRESENTATION ( 'Entretoise', ( #137, #102 ), #326 ) ;
#304 = CARTESIAN_POINT ( 'NONE',  ( 3.061616997868368400E-016, 0.0000000000000000000, 2.499999999999988500 ) ) ;
#305 = SURFACE_STYLE_FILL_AREA ( #247 ) ;
#306 = DIRECTION ( 'NONE',  ( -0.0000000000000000000, 1.000000000000000000, -0.0000000000000000000 ) ) ;
#307 = ORIENTED_EDGE ( 'NONE', *, *, #222, .T. ) ;
#308 = DIRECTION ( 'NONE',  ( -0.0000000000000000000, 1.000000000000000000, -0.0000000000000000000 ) ) ;
#309 = FACE_OUTER_BOUND ( 'NONE', #339, .T. ) ;
#310 =( LENGTH_UNIT ( ) NAMED_UNIT ( * ) SI_UNIT ( .MILLI., .METRE. ) );
#311 = ADVANCED_FACE ( 'NONE', ( #309 ), #87, .F. ) ;
#312 = CARTESIAN_POINT ( 'NONE',  ( 0.0000000000000000000, 130.0000000000000000, 0.0000000000000000000 ) ) ;
#313 = ORIENTED_EDGE ( 'NONE', *, *, #167, .F. ) ;
#314 = DIRECTION ( 'NONE',  ( 1.049727191138615200E-016, 0.5150380749100587100, -0.8571673007021095600 ) ) ;
#315 = FACE_OUTER_BOUND ( 'NONE', #65, .T. ) ;
#316 = DIRECTION ( 'NONE',  ( -0.0000000000000000000, -1.000000000000000000, -0.0000000000000000000 ) ) ;
#317 = AXIS2_PLACEMENT_3D ( 'NONE', #258, #46, #203 ) ;
#318 = EDGE_LOOP ( 'NONE', ( #262, #20, #291 ) ) ;
#319 = CYLINDRICAL_SURFACE ( 'NONE', #268, 5.000000000000000000 ) ;
#320 = CIRCLE ( 'NONE', #213, 5.000000000000000000 ) ;
#321 = VERTEX_POINT ( 'NONE', #106 ) ;
#322 = EDGE_CURVE ( 'NONE', #108, #76, #34, .T. ) ;
#323 = LINE ( 'NONE', #139, #246 ) ;
#324 = CARTESIAN_POINT ( 'NONE',  ( -5.266508213502314400E-015, 21.50215154756890400, 0.0000000000000000000 ) ) ;
#325 = DIRECTION ( 'NONE',  ( 0.0000000000000000000, 0.0000000000000000000, -1.000000000000000000 ) ) ;
#326 =( GEOMETRIC_REPRESENTATION_CONTEXT ( 3 ) GLOBAL_UNCERTAINTY_ASSIGNED_CONTEXT ( ( #23 ) ) GLOBAL_UNIT_ASSIGNED_CONTEXT ( ( #132, #330, #162 ) ) REPRESENTATION_CONTEXT ( 'NONE', 'WORKASPACE' ) );
#327 = CARTESIAN_POINT ( 'NONE',  ( 3.061616997868373300E-016, 150.0000000000000000, -2.499999999999990200 ) ) ;
#328 = PLANE ( 'NONE',  #1 ) ;
#329 = CYLINDRICAL_SURFACE ( 'NONE', #133, 2.499999999999988500 ) ;
#330 =( NAMED_UNIT ( * ) PLANE_ANGLE_UNIT ( ) SI_UNIT ( $, .RADIAN. ) );
#331 = ORIENTED_EDGE ( 'NONE', *, *, #59, .F. ) ;
#332 = CYLINDRICAL_SURFACE ( 'NONE', #195, 2.499999999999993300 ) ;
#333 = CYLINDRICAL_SURFACE ( 'NONE', #88, 2.499999999999993300 ) ;
#334 = DIRECTION ( 'NONE',  ( -0.0000000000000000000, -1.000000000000000000, -0.0000000000000000000 ) ) ;
#335 = AXIS2_PLACEMENT_3D ( 'NONE', #206, #316, #235 ) ;
#336 = DIRECTION ( 'NONE',  ( 0.0000000000000000000, 0.0000000000000000000, 1.000000000000000000 ) ) ;
#337 = CARTESIAN_POINT ( 'NONE',  ( 0.0000000000000000000, 150.0000000000000000, 0.0000000000000000000 ) ) ;
#338 = SURFACE_SIDE_STYLE ('',( #205 ) ) ;
#339 = EDGE_LOOP ( 'NONE', ( #4, #307, #256 ) ) ;
#340 = ORIENTED_EDGE ( 'NONE', *, *, #234, .F. ) ;
#341 = ADVANCED_FACE ( 'NONE', ( #161, #38 ), #328, .T. ) ;
#342 = DIRECTION ( 'NONE',  ( -0.0000000000000000000, 1.000000000000000000, -0.0000000000000000000 ) ) ;
#343 = DIRECTION ( 'NONE',  ( 0.0000000000000000000, 0.5150380749100587100, 0.8571673007021095600 ) ) ;
#344 = CARTESIAN_POINT ( 'NONE',  ( 3.061616997868366400E-016, 20.00000000000000400, 2.499999999999986700 ) ) ;
#345 = EDGE_CURVE ( 'NONE', #321, #108, #157, .T. ) ;
#346 = DIRECTION ( 'NONE',  ( 0.0000000000000000000, 0.0000000000000000000, 1.000000000000000000 ) ) ;
#347 = CIRCLE ( 'NONE', #317, 2.499999999999990200 ) ;
#348 = FACE_OUTER_BOUND ( 'NONE', #189, .T. ) ;
ENDSEC;
END-ISO-10303-21;
