ISO-10303-21;
HEADER;
FILE_DESCRIPTION (( 'STEP AP203' ),
    '1' );
FILE_NAME ('FOND PLATSTEP.STEP',
    '2023-07-27T07:41:27',
    ( '' ),
    ( '' ),
    'SwSTEP 2.0',
    'SolidWorks 2015',
    '' );
FILE_SCHEMA (( 'CONFIG_CONTROL_DESIGN' ));
ENDSEC;

DATA;
#1 = DIRECTION ( 'NONE',  ( -1.000000000000000000, 0.0000000000000000000, 0.0000000000000000000 ) ) ;
#2 = ORIENTED_EDGE ( 'NONE', *, *, #328, .T. ) ;
#3 = CIRCLE ( 'NONE', #72, 57.50000000000000000 ) ;
#4 = CARTESIAN_POINT ( 'NONE',  ( 0.0000000000000000000, 13.50000000000000200, 0.0000000000000000000 ) ) ;
#5 = DIRECTION ( 'NONE',  ( 0.0000000000000000000, 0.0000000000000000000, 1.000000000000000000 ) ) ;
#6 = EDGE_CURVE ( 'NONE', #219, #300, #46, .T. ) ;
#7 = CC_DESIGN_SECURITY_CLASSIFICATION ( #277, ( #241 ) ) ;
#8 = ORIENTED_EDGE ( 'NONE', *, *, #95, .F. ) ;
#9 = LOCAL_TIME ( 9, 41, 27.00000000000000000, #172 ) ;
#10 = APPROVAL_DATE_TIME ( #288, #193 ) ;
#11 = ORIENTED_EDGE ( 'NONE', *, *, #140, .F. ) ;
#12 = FACE_OUTER_BOUND ( 'NONE', #258, .T. ) ;
#13 = DIRECTION ( 'NONE',  ( 0.0000000000000000000, -0.0000000000000000000, 1.000000000000000000 ) ) ;
#14 = CARTESIAN_POINT ( 'NONE',  ( 0.0000000000000000000, 17.50000000000000000, 0.0000000000000000000 ) ) ;
#15 = EDGE_CURVE ( 'NONE', #49, #171, #196, .T. ) ;
#16 = AXIS2_PLACEMENT_3D ( 'NONE', #352, #101, #106 ) ;
#17 = DIRECTION ( 'NONE',  ( -0.0000000000000000000, -1.000000000000000000, -0.0000000000000000000 ) ) ;
#18 = CARTESIAN_POINT ( 'NONE',  ( 0.0000000000000000000, 13.50000000000000200, -57.50000000000000000 ) ) ;
#19 = ORIENTED_EDGE ( 'NONE', *, *, #356, .F. ) ;
#20 = ADVANCED_FACE ( 'NONE', ( #279 ), #139, .F. ) ;
#21 = DIRECTION ( 'NONE',  ( 0.0000000000000000000, 0.0000000000000000000, -1.000000000000000000 ) ) ;
#22 = ORIENTED_EDGE ( 'NONE', *, *, #34, .T. ) ;
#23 = VECTOR ( 'NONE', #37, 1000.000000000000000 ) ;
#24 = CARTESIAN_POINT ( 'NONE',  ( 0.0000000000000000000, 14.00000000000000000, 0.0000000000000000000 ) ) ;
#25 = APPLICATION_CONTEXT ( 'configuration controlled 3d designs of mechanical parts and assemblies' ) ;
#26 =( NAMED_UNIT ( * ) SI_UNIT ( $, .STERADIAN. ) SOLID_ANGLE_UNIT ( ) );
#27 = PERSON_AND_ORGANIZATION_ROLE ( 'creator' ) ;
#28 = VERTEX_POINT ( 'NONE', #88 ) ;
#29 = COORDINATED_UNIVERSAL_TIME_OFFSET ( 1, 0, .AHEAD. ) ;
#30 = PERSON_AND_ORGANIZATION_ROLE ( 'design_owner' ) ;
#31 = APPROVAL_STATUS ( 'not_yet_approved' ) ;
#32 = EDGE_CURVE ( 'NONE', #142, #129, #167, .T. ) ;
#33 = CLOSED_SHELL ( 'NONE', ( #54, #325, #111, #245, #137, #359, #286, #79, #131, #331, #20 ) ) ;
#34 = EDGE_CURVE ( 'NONE', #142, #219, #50, .T. ) ;
#35 = ORIENTED_EDGE ( 'NONE', *, *, #210, .T. ) ;
#36 = AXIS2_PLACEMENT_3D ( 'NONE', #97, #283, #198 ) ;
#37 = DIRECTION ( 'NONE',  ( -0.0000000000000000000, -1.000000000000000000, -0.0000000000000000000 ) ) ;
#38 = DIRECTION ( 'NONE',  ( 0.0000000000000000000, 1.000000000000000000, 0.0000000000000000000 ) ) ;
#39 = ORIENTED_EDGE ( 'NONE', *, *, #295, .T. ) ;
#40 = FACE_OUTER_BOUND ( 'NONE', #92, .T. ) ;
#41 = EDGE_CURVE ( 'NONE', #99, #142, #301, .T. ) ;
#42 = DIRECTION ( 'NONE',  ( 0.0000000000000000000, 0.0000000000000000000, -1.000000000000000000 ) ) ;
#43 = DESIGN_CONTEXT ( 'detailed design', #136, 'design' ) ;
#44 = DIRECTION ( 'NONE',  ( 0.0000000000000000000, 1.000000000000000000, 0.0000000000000000000 ) ) ;
#45 = EDGE_LOOP ( 'NONE', ( #86, #76, #178, #273 ) ) ;
#46 = CIRCLE ( 'NONE', #335, 57.50000000000000000 ) ;
#47 = DIRECTION ( 'NONE',  ( 0.0000000000000000000, 0.0000000000000000000, 1.000000000000000000 ) ) ;
#48 = CARTESIAN_POINT ( 'NONE',  ( 6.980486755139911300E-015, 20.00000000000000000, -53.99999999999998600 ) ) ;
#49 = VERTEX_POINT ( 'NONE', #61 ) ;
#50 = LINE ( 'NONE', #69, #159 ) ;
#51 = DIRECTION ( 'NONE',  ( 0.0000000000000000000, 0.0000000000000000000, 1.000000000000000000 ) ) ;
#52 = EDGE_LOOP ( 'NONE', ( #341, #190, #152, #182 ) ) ;
#53 = AXIS2_PLACEMENT_3D ( 'NONE', #24, #350, #260 ) ;
#54 = ADVANCED_FACE ( 'NONE', ( #12 ), #327, .F. ) ;
#55 = DIRECTION ( 'NONE',  ( -0.0000000000000000000, -1.000000000000000000, -0.0000000000000000000 ) ) ;
#56 = APPROVAL_STATUS ( 'not_yet_approved' ) ;
#57 = COORDINATED_UNIVERSAL_TIME_OFFSET ( 1, 0, .AHEAD. ) ;
#58 = EDGE_CURVE ( 'NONE', #158, #49, #115, .T. ) ;
#59 = ORIENTED_EDGE ( 'NONE', *, *, #295, .F. ) ;
#60 = CIRCLE ( 'NONE', #357, 59.99999999999998600 ) ;
#61 = CARTESIAN_POINT ( 'NONE',  ( 0.0000000000000000000, 14.00000000000000000, -59.99999999999998600 ) ) ;
#62 = CIRCLE ( 'NONE', #296, 59.99999999999998600 ) ;
#63 = DIRECTION ( 'NONE',  ( 0.0000000000000000000, 0.0000000000000000000, 1.000000000000000000 ) ) ;
#64 = DATE_AND_TIME ( #197, #9 ) ;
#65 = EDGE_CURVE ( 'NONE', #142, #99, #3, .T. ) ;
#66 = DIRECTION ( 'NONE',  ( -0.0000000000000000000, -1.000000000000000000, -0.0000000000000000000 ) ) ;
#67 = ORIENTED_EDGE ( 'NONE', *, *, #148, .F. ) ;
#68 = FACE_OUTER_BOUND ( 'NONE', #147, .T. ) ;
#69 = CARTESIAN_POINT ( 'NONE',  ( 0.0000000000000000000, 20.00000000000000000, -57.50000000000000000 ) ) ;
#70 = UNCERTAINTY_MEASURE_WITH_UNIT (LENGTH_MEASURE( 1.000000000000000100E-005 ), #82, 'distance_accuracy_value', 'NONE');
#71 = DIRECTION ( 'NONE',  ( 0.0000000000000000000, 1.000000000000000000, 0.0000000000000000000 ) ) ;
#72 = AXIS2_PLACEMENT_3D ( 'NONE', #91, #44, #315 ) ;
#73 = DIRECTION ( 'NONE',  ( -0.0000000000000000000, -1.000000000000000000, -0.0000000000000000000 ) ) ;
#74 = CALENDAR_DATE ( 2023, 27, 7 ) ;
#75 = CARTESIAN_POINT ( 'NONE',  ( 0.0000000000000000000, 0.0000000000000000000, 0.0000000000000000000 ) ) ;
#76 = ORIENTED_EDGE ( 'NONE', *, *, #41, .F. ) ;
#77 = FACE_OUTER_BOUND ( 'NONE', #338, .T. ) ;
#78 = DIRECTION ( 'NONE',  ( 0.0000000000000000000, 1.000000000000000000, 0.0000000000000000000 ) ) ;
#79 = ADVANCED_FACE ( 'NONE', ( #334 ), #294, .T. ) ;
#80 = CARTESIAN_POINT ( 'NONE',  ( 0.0000000000000000000, 14.00000000000000000, 53.99999999999998600 ) ) ;
#81 = EDGE_LOOP ( 'NONE', ( #278, #249 ) ) ;
#82 =( LENGTH_UNIT ( ) NAMED_UNIT ( * ) SI_UNIT ( .MILLI., .METRE. ) );
#83 = LOCAL_TIME ( 9, 41, 27.00000000000000000, #132 ) ;
#84 = PERSON_AND_ORGANIZATION ( #281, #118 ) ;
#85 = ORIENTED_EDGE ( 'NONE', *, *, #148, .T. ) ;
#86 = ORIENTED_EDGE ( 'NONE', *, *, #32, .F. ) ;
#87 = DIRECTION ( 'NONE',  ( 0.0000000000000000000, 1.000000000000000000, 0.0000000000000000000 ) ) ;
#88 = CARTESIAN_POINT ( 'NONE',  ( 7.347880794884116800E-015, 0.0000000000000000000, 59.99999999999998600 ) ) ;
#89 = AXIS2_PLACEMENT_3D ( 'NONE', #342, #253, #282 ) ;
#90 = CALENDAR_DATE ( 2023, 27, 7 ) ;
#91 = CARTESIAN_POINT ( 'NONE',  ( 0.0000000000000000000, 13.50000000000000200, 0.0000000000000000000 ) ) ;
#92 = EDGE_LOOP ( 'NONE', ( #39, #302, #2, #120 ) ) ;
#93 = LINE ( 'NONE', #187, #269 ) ;
#94 = CARTESIAN_POINT ( 'NONE',  ( 0.0000000000000000000, 13.50000000000000200, 0.0000000000000000000 ) ) ;
#95 = EDGE_CURVE ( 'NONE', #171, #28, #276, .T. ) ;
#96 = AXIS2_PLACEMENT_3D ( 'NONE', #261, #127, #316 ) ;
#97 = CARTESIAN_POINT ( 'NONE',  ( 0.0000000000000000000, 14.00000000000000000, 0.0000000000000000000 ) ) ;
#98 = CARTESIAN_POINT ( 'NONE',  ( 6.796789735267811800E-015, 17.50000000000000000, -53.50000000000000700 ) ) ;
#99 = VERTEX_POINT ( 'NONE', #181 ) ;
#100 = PERSON_AND_ORGANIZATION ( #281, #118 ) ;
#101 = DIRECTION ( 'NONE',  ( -1.000000000000000000, 0.0000000000000000000, 0.0000000000000000000 ) ) ;
#102 = PERSON_AND_ORGANIZATION ( #281, #118 ) ;
#103 = DIRECTION ( 'NONE',  ( -0.0000000000000000000, -1.000000000000000000, -0.0000000000000000000 ) ) ;
#104 = ORIENTED_EDGE ( 'NONE', *, *, #6, .T. ) ;
#105 = CIRCLE ( 'NONE', #337, 53.99999999999998600 ) ;
#106 = DIRECTION ( 'NONE',  ( 0.0000000000000000000, 0.0000000000000000000, 1.000000000000000000 ) ) ;
#107 = DIRECTION ( 'NONE',  ( 0.0000000000000000000, -0.0000000000000000000, 1.000000000000000000 ) ) ;
#108 = AXIS2_PLACEMENT_3D ( 'NONE', #130, #320, #21 ) ;
#109 = ORIENTED_EDGE ( 'NONE', *, *, #95, .T. ) ;
#110 = PERSON_AND_ORGANIZATION_ROLE ( 'classification_officer' ) ;
#111 = ADVANCED_FACE ( 'NONE', ( #40 ), #121, .T. ) ;
#112 = CARTESIAN_POINT ( 'NONE',  ( 0.0000000000000000000, 20.00000000000000000, 0.0000000000000000000 ) ) ;
#113 = AXIS2_PLACEMENT_3D ( 'NONE', #199, #66, #255 ) ;
#114 = APPROVAL_ROLE ( '' ) ;
#115 = CIRCLE ( 'NONE', #36, 59.99999999999998600 ) ;
#116 = AXIS2_PLACEMENT_3D ( 'NONE', #157, #71, #204 ) ;
#117 = ORIENTED_EDGE ( 'NONE', *, *, #328, .F. ) ;
#118 = ORGANIZATION ( 'UNSPECIFIED', 'UNSPECIFIED', '' ) ;
#119 = PRODUCT_DEFINITION ( 'UNKNOWN', '', #241, #43 ) ;
#120 = ORIENTED_EDGE ( 'NONE', *, *, #15, .F. ) ;
#121 = CYLINDRICAL_SURFACE ( 'NONE', #209, 59.99999999999998600 ) ;
#122 = DIRECTION ( 'NONE',  ( -0.0000000000000000000, -1.000000000000000000, -0.0000000000000000000 ) ) ;
#123 = DIRECTION ( 'NONE',  ( 0.0000000000000000000, 1.000000000000000000, 0.0000000000000000000 ) ) ;
#124 = EDGE_LOOP ( 'NONE', ( #19, #263, #229, #109 ) ) ;
#125 = TOROIDAL_SURFACE ( 'NONE', #53, 53.99999999999998600, 6.000000000000000000 ) ;
#126 =( GEOMETRIC_REPRESENTATION_CONTEXT ( 3 ) GLOBAL_UNCERTAINTY_ASSIGNED_CONTEXT ( ( #70 ) ) GLOBAL_UNIT_ASSIGNED_CONTEXT ( ( #82, #138, #26 ) ) REPRESENTATION_CONTEXT ( 'NONE', 'WORKASPACE' ) );
#127 = DIRECTION ( 'NONE',  ( 0.0000000000000000000, 1.000000000000000000, 0.0000000000000000000 ) ) ;
#128 = CARTESIAN_POINT ( 'NONE',  ( 0.0000000000000000000, 0.0000000000000000000, 0.0000000000000000000 ) ) ;
#129 = VERTEX_POINT ( 'NONE', #98 ) ;
#130 = CARTESIAN_POINT ( 'NONE',  ( 0.0000000000000000000, 20.00000000000000000, 0.0000000000000000000 ) ) ;
#131 = ADVANCED_FACE ( 'NONE', ( #77 ), #345, .F. ) ;
#132 = COORDINATED_UNIVERSAL_TIME_OFFSET ( 1, 0, .AHEAD. ) ;
#133 = DIRECTION ( 'NONE',  ( 0.0000000000000000000, 1.000000000000000000, 0.0000000000000000000 ) ) ;
#134 = ORIENTED_EDGE ( 'NONE', *, *, #6, .F. ) ;
#135 = FACE_OUTER_BOUND ( 'NONE', #201, .T. ) ;
#136 = APPLICATION_CONTEXT ( 'configuration controlled 3d designs of mechanical parts and assemblies' ) ;
#137 = ADVANCED_FACE ( 'NONE', ( #68 ), #351, .F. ) ;
#138 =( NAMED_UNIT ( * ) PLANE_ANGLE_UNIT ( ) SI_UNIT ( $, .RADIAN. ) );
#139 = TOROIDAL_SURFACE ( 'NONE', #156, 53.50000000000000700, 4.000000000000000000 ) ;
#140 = EDGE_CURVE ( 'NONE', #300, #219, #220, .T. ) ;
#141 = DATE_AND_TIME ( #90, #343 ) ;
#142 = VERTEX_POINT ( 'NONE', #18 ) ;
#143 = LINE ( 'NONE', #228, #174 ) ;
#144 = CC_DESIGN_PERSON_AND_ORGANIZATION_ASSIGNMENT ( #100, #30, ( #310 ) ) ;
#145 = PERSON_AND_ORGANIZATION ( #281, #118 ) ;
#146 = DIRECTION ( 'NONE',  ( 1.224646799147353500E-016, 0.0000000000000000000, -1.000000000000000000 ) ) ;
#147 = EDGE_LOOP ( 'NONE', ( #67, #212, #22, #11 ) ) ;
#148 = EDGE_CURVE ( 'NONE', #99, #300, #143, .T. ) ;
#149 = CIRCLE ( 'NONE', #299, 53.50000000000000700 ) ;
#150 = AXIS2_PLACEMENT_3D ( 'NONE', #285, #238, #160 ) ;
#151 = CARTESIAN_POINT ( 'NONE',  ( 0.0000000000000000000, 0.0000000000000000000, 0.0000000000000000000 ) ) ;
#152 = ORIENTED_EDGE ( 'NONE', *, *, #336, .T. ) ;
#153 = CARTESIAN_POINT ( 'NONE',  ( 0.0000000000000000000, 14.00000000000000000, 0.0000000000000000000 ) ) ;
#154 = APPROVAL_PERSON_ORGANIZATION ( #102, #193, #271 ) ;
#155 = PLANE ( 'NONE',  #184 ) ;
#156 = AXIS2_PLACEMENT_3D ( 'NONE', #4, #87, #194 ) ;
#157 = CARTESIAN_POINT ( 'NONE',  ( 0.0000000000000000000, 20.00000000000000000, 0.0000000000000000000 ) ) ;
#158 = VERTEX_POINT ( 'NONE', #308 ) ;
#159 = VECTOR ( 'NONE', #344, 1000.000000000000000 ) ;
#160 = DIRECTION ( 'NONE',  ( 1.224646799147354700E-016, 0.0000000000000000000, -1.000000000000000000 ) ) ;
#161 = SECURITY_CLASSIFICATION_LEVEL ( 'unclassified' ) ;
#162 = AXIS2_PLACEMENT_3D ( 'NONE', #333, #186, #332 ) ;
#163 = EDGE_LOOP ( 'NONE', ( #313, #85, #134, #242 ) ) ;
#164 = DATE_AND_TIME ( #304, #314 ) ;
#165 = AXIS2_PLACEMENT_3D ( 'NONE', #226, #123, #259 ) ;
#166 = VERTEX_POINT ( 'NONE', #176 ) ;
#167 = CIRCLE ( 'NONE', #231, 4.000000000000003600 ) ;
#168 = APPROVAL ( #31, 'UNSPECIFIED' ) ;
#169 = EDGE_CURVE ( 'NONE', #49, #252, #206, .T. ) ;
#170 = DIRECTION ( 'NONE',  ( 0.0000000000000000000, 1.000000000000000000, 0.0000000000000000000 ) ) ;
#171 = VERTEX_POINT ( 'NONE', #177 ) ;
#172 = COORDINATED_UNIVERSAL_TIME_OFFSET ( 1, 0, .AHEAD. ) ;
#173 = DATE_AND_TIME ( #74, #183 ) ;
#174 = VECTOR ( 'NONE', #175, 1000.000000000000000 ) ;
#175 = DIRECTION ( 'NONE',  ( -0.0000000000000000000, -1.000000000000000000, -0.0000000000000000000 ) ) ;
#176 = CARTESIAN_POINT ( 'NONE',  ( 0.0000000000000000000, 17.50000000000000000, 53.50000000000000700 ) ) ;
#177 = CARTESIAN_POINT ( 'NONE',  ( 0.0000000000000000000, 0.0000000000000000000, -59.99999999999998600 ) ) ;
#178 = ORIENTED_EDGE ( 'NONE', *, *, #256, .T. ) ;
#179 = FACE_OUTER_BOUND ( 'NONE', #52, .T. ) ;
#180 = AXIS2_PLACEMENT_3D ( 'NONE', #233, #17, #203 ) ;
#181 = CARTESIAN_POINT ( 'NONE',  ( 7.041719095097280500E-015, 13.50000000000000200, 57.50000000000000000 ) ) ;
#182 = ORIENTED_EDGE ( 'NONE', *, *, #303, .F. ) ;
#183 = LOCAL_TIME ( 9, 41, 27.00000000000000000, #57 ) ;
#184 = AXIS2_PLACEMENT_3D ( 'NONE', #128, #291, #319 ) ;
#185 = MANIFOLD_SOLID_BREP ( 'Congé2', #33 ) ;
#186 = DIRECTION ( 'NONE',  ( 0.0000000000000000000, 0.0000000000000000000, 1.000000000000000000 ) ) ;
#187 = CARTESIAN_POINT ( 'NONE',  ( 7.347880794884116800E-015, 20.00000000000000000, 59.99999999999998600 ) ) ;
#188 = MECHANICAL_CONTEXT ( 'NONE', #25, 'mechanical' ) ;
#189 = ORIENTED_EDGE ( 'NONE', *, *, #256, .F. ) ;
#190 = ORIENTED_EDGE ( 'NONE', *, *, #58, .F. ) ;
#191 = CIRCLE ( 'NONE', #16, 4.000000000000003600 ) ;
#192 = EDGE_CURVE ( 'NONE', #166, #129, #149, .T. ) ;
#193 = APPROVAL ( #56, 'UNSPECIFIED' ) ;
#194 = DIRECTION ( 'NONE',  ( 0.0000000000000000000, 0.0000000000000000000, 1.000000000000000000 ) ) ;
#195 = ORIENTED_EDGE ( 'NONE', *, *, #140, .T. ) ;
#196 = LINE ( 'NONE', #275, #23 ) ;
#197 = CALENDAR_DATE ( 2023, 27, 7 ) ;
#198 = DIRECTION ( 'NONE',  ( 0.0000000000000000000, 0.0000000000000000000, 1.000000000000000000 ) ) ;
#199 = CARTESIAN_POINT ( 'NONE',  ( 0.0000000000000000000, 20.00000000000000000, 0.0000000000000000000 ) ) ;
#200 = CC_DESIGN_PERSON_AND_ORGANIZATION_ASSIGNMENT ( #84, #27, ( #119 ) ) ;
#201 = EDGE_LOOP ( 'NONE', ( #59, #321, #235, #239 ) ) ;
#202 = EDGE_LOOP ( 'NONE', ( #8, #117 ) ) ;
#203 = DIRECTION ( 'NONE',  ( 0.0000000000000000000, 0.0000000000000000000, -1.000000000000000000 ) ) ;
#204 = DIRECTION ( 'NONE',  ( 0.0000000000000000000, 0.0000000000000000000, 1.000000000000000000 ) ) ;
#205 = CARTESIAN_POINT ( 'NONE',  ( 0.0000000000000000000, 17.50000000000000000, 0.0000000000000000000 ) ) ;
#206 = CIRCLE ( 'NONE', #150, 5.999999999999998200 ) ;
#207 = DIRECTION ( 'NONE',  ( 0.0000000000000000000, 0.0000000000000000000, 1.000000000000000000 ) ) ;
#208 = DIRECTION ( 'NONE',  ( 0.0000000000000000000, 0.0000000000000000000, 1.000000000000000000 ) ) ;
#209 = AXIS2_PLACEMENT_3D ( 'NONE', #348, #122, #42 ) ;
#210 = EDGE_CURVE ( 'NONE', #129, #166, #213, .T. ) ;
#211 = CARTESIAN_POINT ( 'NONE',  ( 7.041719095097280500E-015, 0.0000000000000000000, 57.50000000000000000 ) ) ;
#212 = ORIENTED_EDGE ( 'NONE', *, *, #41, .T. ) ;
#213 = CIRCLE ( 'NONE', #227, 53.50000000000000700 ) ;
#214 = PERSON_AND_ORGANIZATION_ROLE ( 'creator' ) ;
#215 = CC_DESIGN_PERSON_AND_ORGANIZATION_ASSIGNMENT ( #145, #214, ( #241 ) ) ;
#216 = DATE_TIME_ROLE ( 'classification_date' ) ;
#217 = APPROVAL_ROLE ( '' ) ;
#218 = CALENDAR_DATE ( 2023, 27, 7 ) ;
#219 = VERTEX_POINT ( 'NONE', #264 ) ;
#220 = CIRCLE ( 'NONE', #311, 57.50000000000000000 ) ;
#221 = AXIS2_PLACEMENT_3D ( 'NONE', #14, #232, #13 ) ;
#222 = PRODUCT_DEFINITION_SHAPE ( 'NONE', 'NONE',  #119 ) ;
#223 = ORIENTED_EDGE ( 'NONE', *, *, #32, .T. ) ;
#224 = PRODUCT_RELATED_PRODUCT_CATEGORY ( 'detail', '', ( #310 ) ) ;
#225 = PERSON_AND_ORGANIZATION ( #281, #118 ) ;
#226 = CARTESIAN_POINT ( 'NONE',  ( 0.0000000000000000000, 0.0000000000000000000, 0.0000000000000000000 ) ) ;
#227 = AXIS2_PLACEMENT_3D ( 'NONE', #205, #73, #207 ) ;
#228 = CARTESIAN_POINT ( 'NONE',  ( 7.041719095097280500E-015, 20.00000000000000000, 57.50000000000000000 ) ) ;
#229 = ORIENTED_EDGE ( 'NONE', *, *, #15, .T. ) ;
#230 = CIRCLE ( 'NONE', #116, 53.99999999999998600 ) ;
#231 = AXIS2_PLACEMENT_3D ( 'NONE', #257, #312, #146 ) ;
#232 = DIRECTION ( 'NONE',  ( 0.0000000000000000000, 1.000000000000000000, 0.0000000000000000000 ) ) ;
#233 = CARTESIAN_POINT ( 'NONE',  ( 0.0000000000000000000, 20.00000000000000000, 0.0000000000000000000 ) ) ;
#234 = CC_DESIGN_PERSON_AND_ORGANIZATION_ASSIGNMENT ( #225, #244, ( #241 ) ) ;
#235 = ORIENTED_EDGE ( 'NONE', *, *, #309, .F. ) ;
#236 = APPROVAL_PERSON_ORGANIZATION ( #243, #168, #217 ) ;
#237 = DIRECTION ( 'NONE',  ( 0.0000000000000000000, 0.0000000000000000000, 1.000000000000000000 ) ) ;
#238 = DIRECTION ( 'NONE',  ( 1.000000000000000000, -0.0000000000000000000, 1.224646799147353200E-016 ) ) ;
#239 = ORIENTED_EDGE ( 'NONE', *, *, #336, .F. ) ;
#240 = FACE_OUTER_BOUND ( 'NONE', #202, .T. ) ;
#241 = PRODUCT_DEFINITION_FORMATION_WITH_SPECIFIED_SOURCE ( 'ANY', '', #310, .NOT_KNOWN. ) ;
#242 = ORIENTED_EDGE ( 'NONE', *, *, #34, .F. ) ;
#243 = PERSON_AND_ORGANIZATION ( #281, #118 ) ;
#244 = PERSON_AND_ORGANIZATION_ROLE ( 'design_supplier' ) ;
#245 = ADVANCED_FACE ( 'NONE', ( #355 ), #250, .F. ) ;
#246 = APPROVAL_STATUS ( 'not_yet_approved' ) ;
#247 = PLANE ( 'NONE',  #266 ) ;
#248 = AXIS2_PLACEMENT_3D ( 'NONE', #94, #38, #63 ) ;
#249 = ORIENTED_EDGE ( 'NONE', *, *, #303, .T. ) ;
#250 = CYLINDRICAL_SURFACE ( 'NONE', #108, 57.50000000000000000 ) ;
#251 = CC_DESIGN_APPROVAL ( #168, ( #119 ) ) ;
#252 = VERTEX_POINT ( 'NONE', #48 ) ;
#253 = DIRECTION ( 'NONE',  ( 0.0000000000000000000, 1.000000000000000000, 0.0000000000000000000 ) ) ;
#254 = PERSON_AND_ORGANIZATION ( #281, #118 ) ;
#255 = DIRECTION ( 'NONE',  ( 0.0000000000000000000, 0.0000000000000000000, -1.000000000000000000 ) ) ;
#256 = EDGE_CURVE ( 'NONE', #99, #166, #191, .T. ) ;
#257 = CARTESIAN_POINT ( 'NONE',  ( 6.551860375438340700E-015, 13.50000000000000200, -53.50000000000000700 ) ) ;
#258 = EDGE_LOOP ( 'NONE', ( #354, #223, #293, #189 ) ) ;
#259 = DIRECTION ( 'NONE',  ( 0.0000000000000000000, 0.0000000000000000000, 1.000000000000000000 ) ) ;
#260 = DIRECTION ( 'NONE',  ( 0.0000000000000000000, 0.0000000000000000000, 1.000000000000000000 ) ) ;
#261 = CARTESIAN_POINT ( 'NONE',  ( 0.0000000000000000000, 14.00000000000000000, 0.0000000000000000000 ) ) ;
#262 = APPROVAL ( #246, 'UNSPECIFIED' ) ;
#263 = ORIENTED_EDGE ( 'NONE', *, *, #58, .T. ) ;
#264 = CARTESIAN_POINT ( 'NONE',  ( 0.0000000000000000000, 0.0000000000000000000, -57.50000000000000000 ) ) ;
#265 = DIRECTION ( 'NONE',  ( -0.0000000000000000000, -1.000000000000000000, -0.0000000000000000000 ) ) ;
#266 = AXIS2_PLACEMENT_3D ( 'NONE', #112, #78, #107 ) ;
#267 = APPROVAL_DATE_TIME ( #141, #262 ) ;
#268 = EDGE_LOOP ( 'NONE', ( #104, #195 ) ) ;
#269 = VECTOR ( 'NONE', #55, 1000.000000000000000 ) ;
#270 = CC_DESIGN_PERSON_AND_ORGANIZATION_ASSIGNMENT ( #254, #110, ( #277 ) ) ;
#271 = APPROVAL_ROLE ( '' ) ;
#272 = TOROIDAL_SURFACE ( 'NONE', #96, 53.99999999999998600, 6.000000000000000000 ) ;
#273 = ORIENTED_EDGE ( 'NONE', *, *, #210, .F. ) ;
#274 = FACE_BOUND ( 'NONE', #268, .T. ) ;
#275 = CARTESIAN_POINT ( 'NONE',  ( 0.0000000000000000000, 20.00000000000000000, -59.99999999999998600 ) ) ;
#276 = CIRCLE ( 'NONE', #165, 59.99999999999998600 ) ;
#277 = SECURITY_CLASSIFICATION ( '', '', #161 ) ;
#278 = ORIENTED_EDGE ( 'NONE', *, *, #309, .T. ) ;
#279 = FACE_OUTER_BOUND ( 'NONE', #45, .T. ) ;
#280 = DIRECTION ( 'NONE',  ( 0.0000000000000000000, 0.0000000000000000000, 1.000000000000000000 ) ) ;
#281 = PERSON ( 'UNSPECIFIED', 'UNSPECIFIED', 'UNSPECIFIED', ('UNSPECIFIED'), ('UNSPECIFIED'), ('UNSPECIFIED') ) ;
#282 = DIRECTION ( 'NONE',  ( 0.0000000000000000000, 0.0000000000000000000, 1.000000000000000000 ) ) ;
#283 = DIRECTION ( 'NONE',  ( -0.0000000000000000000, -1.000000000000000000, -0.0000000000000000000 ) ) ;
#284 = CC_DESIGN_DATE_AND_TIME_ASSIGNMENT ( #173, #216, ( #277 ) ) ;
#285 = CARTESIAN_POINT ( 'NONE',  ( 6.613092715395705900E-015, 14.00000000000000000, -53.99999999999998600 ) ) ;
#286 = ADVANCED_FACE ( 'NONE', ( #240, #274 ), #155, .F. ) ;
#287 = DIRECTION ( 'NONE',  ( 0.0000000000000000000, 1.000000000000000000, 0.0000000000000000000 ) ) ;
#288 = DATE_AND_TIME ( #218, #83 ) ;
#289 = CARTESIAN_POINT ( 'NONE',  ( 0.0000000000000000000, 20.00000000000000000, 0.0000000000000000000 ) ) ;
#290 = APPROVAL_PERSON_ORGANIZATION ( #318, #262, #114 ) ;
#291 = DIRECTION ( 'NONE',  ( 0.0000000000000000000, 1.000000000000000000, 0.0000000000000000000 ) ) ;
#292 = ADVANCED_BREP_SHAPE_REPRESENTATION ( 'FOND PLATSTEP', ( #185, #162 ), #126 ) ;
#293 = ORIENTED_EDGE ( 'NONE', *, *, #192, .F. ) ;
#294 = CYLINDRICAL_SURFACE ( 'NONE', #113, 59.99999999999998600 ) ;
#295 = EDGE_CURVE ( 'NONE', #49, #158, #62, .T. ) ;
#296 = AXIS2_PLACEMENT_3D ( 'NONE', #153, #103, #51 ) ;
#297 = DIRECTION ( 'NONE',  ( 0.0000000000000000000, 0.0000000000000000000, 1.000000000000000000 ) ) ;
#298 = CC_DESIGN_APPROVAL ( #193, ( #241 ) ) ;
#299 = AXIS2_PLACEMENT_3D ( 'NONE', #323, #265, #47 ) ;
#300 = VERTEX_POINT ( 'NONE', #211 ) ;
#301 = CIRCLE ( 'NONE', #89, 57.50000000000000000 ) ;
#302 = ORIENTED_EDGE ( 'NONE', *, *, #356, .T. ) ;
#303 = EDGE_CURVE ( 'NONE', #252, #326, #105, .T. ) ;
#304 = CALENDAR_DATE ( 2023, 27, 7 ) ;
#305 = AXIS2_PLACEMENT_3D ( 'NONE', #80, #1, #297 ) ;
#306 = COORDINATED_UNIVERSAL_TIME_OFFSET ( 1, 0, .AHEAD. ) ;
#307 = ORIENTED_EDGE ( 'NONE', *, *, #192, .T. ) ;
#308 = CARTESIAN_POINT ( 'NONE',  ( 7.347880794884116800E-015, 14.00000000000000000, 59.99999999999998600 ) ) ;
#309 = EDGE_CURVE ( 'NONE', #326, #252, #230, .T. ) ;
#310 = PRODUCT ( 'FOND PLATSTEP', 'FOND PLATSTEP', '', ( #188 ) ) ;
#311 = AXIS2_PLACEMENT_3D ( 'NONE', #151, #347, #280 ) ;
#312 = DIRECTION ( 'NONE',  ( 1.000000000000000000, -0.0000000000000000000, 1.224646799147353200E-016 ) ) ;
#313 = ORIENTED_EDGE ( 'NONE', *, *, #65, .T. ) ;
#314 = LOCAL_TIME ( 9, 41, 27.00000000000000000, #29 ) ;
#315 = DIRECTION ( 'NONE',  ( 0.0000000000000000000, 0.0000000000000000000, 1.000000000000000000 ) ) ;
#316 = DIRECTION ( 'NONE',  ( 0.0000000000000000000, 0.0000000000000000000, 1.000000000000000000 ) ) ;
#317 = SHAPE_DEFINITION_REPRESENTATION ( #222, #292 ) ;
#318 = PERSON_AND_ORGANIZATION ( #281, #118 ) ;
#319 = DIRECTION ( 'NONE',  ( 0.0000000000000000000, -0.0000000000000000000, 1.000000000000000000 ) ) ;
#320 = DIRECTION ( 'NONE',  ( -0.0000000000000000000, -1.000000000000000000, -0.0000000000000000000 ) ) ;
#321 = ORIENTED_EDGE ( 'NONE', *, *, #169, .T. ) ;
#322 = CARTESIAN_POINT ( 'NONE',  ( 0.0000000000000000000, 20.00000000000000000, 53.99999999999998600 ) ) ;
#323 = CARTESIAN_POINT ( 'NONE',  ( 0.0000000000000000000, 17.50000000000000000, 0.0000000000000000000 ) ) ;
#324 = APPLICATION_PROTOCOL_DEFINITION ( 'international standard', 'config_control_design', 1994, #136 ) ;
#325 = ADVANCED_FACE ( 'NONE', ( #135 ), #272, .T. ) ;
#326 = VERTEX_POINT ( 'NONE', #322 ) ;
#327 = TOROIDAL_SURFACE ( 'NONE', #248, 53.50000000000000700, 4.000000000000000000 ) ;
#328 = EDGE_CURVE ( 'NONE', #28, #171, #60, .T. ) ;
#329 = DATE_TIME_ROLE ( 'creation_date' ) ;
#330 = CC_DESIGN_DATE_AND_TIME_ASSIGNMENT ( #64, #329, ( #119 ) ) ;
#331 = ADVANCED_FACE ( 'NONE', ( #179 ), #125, .T. ) ;
#332 = DIRECTION ( 'NONE',  ( 1.000000000000000000, 0.0000000000000000000, 0.0000000000000000000 ) ) ;
#333 = CARTESIAN_POINT ( 'NONE',  ( 0.0000000000000000000, 0.0000000000000000000, 0.0000000000000000000 ) ) ;
#334 = FACE_OUTER_BOUND ( 'NONE', #124, .T. ) ;
#335 = AXIS2_PLACEMENT_3D ( 'NONE', #340, #170, #5 ) ;
#336 = EDGE_CURVE ( 'NONE', #158, #326, #346, .T. ) ;
#337 = AXIS2_PLACEMENT_3D ( 'NONE', #289, #287, #208 ) ;
#338 = EDGE_LOOP ( 'NONE', ( #307, #35 ) ) ;
#339 = FACE_OUTER_BOUND ( 'NONE', #81, .T. ) ;
#340 = CARTESIAN_POINT ( 'NONE',  ( 0.0000000000000000000, 0.0000000000000000000, 0.0000000000000000000 ) ) ;
#341 = ORIENTED_EDGE ( 'NONE', *, *, #169, .F. ) ;
#342 = CARTESIAN_POINT ( 'NONE',  ( 0.0000000000000000000, 13.50000000000000200, 0.0000000000000000000 ) ) ;
#343 = LOCAL_TIME ( 9, 41, 27.00000000000000000, #306 ) ;
#344 = DIRECTION ( 'NONE',  ( -0.0000000000000000000, -1.000000000000000000, -0.0000000000000000000 ) ) ;
#345 = PLANE ( 'NONE',  #221 ) ;
#346 = CIRCLE ( 'NONE', #305, 5.999999999999998200 ) ;
#347 = DIRECTION ( 'NONE',  ( 0.0000000000000000000, 1.000000000000000000, 0.0000000000000000000 ) ) ;
#348 = CARTESIAN_POINT ( 'NONE',  ( 0.0000000000000000000, 20.00000000000000000, 0.0000000000000000000 ) ) ;
#349 = CC_DESIGN_APPROVAL ( #262, ( #277 ) ) ;
#350 = DIRECTION ( 'NONE',  ( 0.0000000000000000000, 1.000000000000000000, 0.0000000000000000000 ) ) ;
#351 = CYLINDRICAL_SURFACE ( 'NONE', #180, 57.50000000000000000 ) ;
#352 = CARTESIAN_POINT ( 'NONE',  ( 0.0000000000000000000, 13.50000000000000200, 53.50000000000000700 ) ) ;
#353 = APPROVAL_DATE_TIME ( #164, #168 ) ;
#354 = ORIENTED_EDGE ( 'NONE', *, *, #65, .F. ) ;
#355 = FACE_OUTER_BOUND ( 'NONE', #163, .T. ) ;
#356 = EDGE_CURVE ( 'NONE', #158, #28, #93, .T. ) ;
#357 = AXIS2_PLACEMENT_3D ( 'NONE', #75, #133, #237 ) ;
#358 = APPLICATION_PROTOCOL_DEFINITION ( 'international standard', 'config_control_design', 1994, #25 ) ;
#359 = ADVANCED_FACE ( 'NONE', ( #339 ), #247, .T. ) ;
ENDSEC;
END-ISO-10303-21;
