ISO-10303-21;
HEADER;
FILE_DESCRIPTION( ( 'STEP AP203' ), '1' );
FILE_NAME( ' ', '  ', ( '  ' ), ( '  ' ), 'PSStep 10.1', '  ', '  ' );
FILE_SCHEMA( ( 'CONFIG_CONTROL_DESIGN' ) );
ENDSEC;
DATA;
#1 = DESIGN_CONTEXT( '', #27, 'design' );
#2 = APPLICATION_PROTOCOL_DEFINITION( 'INTERNATIONAL STANDARD', 'config_control_design', 1994, #27 );
#3 = PRODUCT_CATEGORY_RELATIONSHIP( 'NONE', 'NONE', #28, #29 );
#4 = DATE_AND_TIME( #30, #31 );
#5 = DATE_TIME_ROLE( 'creation_date' );
#6 = DATE_TIME_ROLE( 'classification_date' );
#7 = PERSON_AND_ORGANIZATION_ROLE( 'creator' );
#8 = PERSON_AND_ORGANIZATION_ROLE( 'design_supplier' );
#9 = PERSON_AND_ORGANIZATION_ROLE( 'classification_officer' );
#10 = PERSON_AND_ORGANIZATION_ROLE( 'design_owner' );
#11 = APPROVAL_PERSON_ORGANIZATION( #32, #33, #34 );
#12 = APPROVAL_DATE_TIME( #4, #33 );
#13 = CC_DESIGN_APPROVAL( #33, ( #35, #36, #37 ) );
#14 = CC_DESIGN_DATE_AND_TIME_ASSIGNMENT( #4, #5, ( #37 ) );
#15 = CC_DESIGN_DATE_AND_TIME_ASSIGNMENT( #4, #6, ( #35 ) );
#16 = CC_DESIGN_PERSON_AND_ORGANIZATION_ASSIGNMENT( #32, #10, ( #38 ) );
#17 = CC_DESIGN_PERSON_AND_ORGANIZATION_ASSIGNMENT( #32, #7, ( #37 ) );
#18 = CC_DESIGN_PERSON_AND_ORGANIZATION_ASSIGNMENT( #32, #7, ( #36 ) );
#19 = CC_DESIGN_PERSON_AND_ORGANIZATION_ASSIGNMENT( #32, #8, ( #36 ) );
#20 = CC_DESIGN_SECURITY_CLASSIFICATION( #35, ( #36 ) );
#21 = CC_DESIGN_PERSON_AND_ORGANIZATION_ASSIGNMENT( #32, #9, ( #35 ) );
#22 = SHAPE_DEFINITION_REPRESENTATION( #39, #40 );
#23 =  ( GEOMETRIC_REPRESENTATION_CONTEXT( 3 )GLOBAL_UNCERTAINTY_ASSIGNED_CONTEXT( ( #43 ) )GLOBAL_UNIT_ASSIGNED_CONTEXT( ( #45, #46, #47 ) )REPRESENTATION_CONTEXT( 'NONE', 'WORKSPACE' ) );
#27 = APPLICATION_CONTEXT( 'CONFIGURATION CONTROLLED 3D DESIGNS OF MECHANICAL PARTS AND ASSEMBLIES' );
#28 = PRODUCT_CATEGORY( 'part', 'NONE' );
#29 = PRODUCT_RELATED_PRODUCT_CATEGORY( 'detail', ' ', ( #38 ) );
#30 = CALENDAR_DATE( 2023, 12, 6 );
#31 = LOCAL_TIME( 9, 21, 47.0000000000000, #49 );
#32 = PERSON_AND_ORGANIZATION( #50, #51 );
#33 = APPROVAL( #52, 'SOLID MODEL' );
#34 = APPROVAL_ROLE( 'APPROVED' );
#35 = SECURITY_CLASSIFICATION( '', '', #53 );
#36 = PRODUCT_DEFINITION_FORMATION_WITH_SPECIFIED_SOURCE( ' ', 'NONE', #38, .NOT_KNOWN. );
#37 = PRODUCT_DEFINITION( 'NONE', 'NONE', #36, #1 );
#38 = PRODUCT( '1', '1', 'PART-1-DESC', ( #54 ) );
#39 = PRODUCT_DEFINITION_SHAPE( 'NONE', 'NONE', #37 );
#40 = ADVANCED_BREP_SHAPE_REPRESENTATION( '1', ( #55, #56 ), #23 );
#43 = UNCERTAINTY_MEASURE_WITH_UNIT( LENGTH_MEASURE( 0.00100000000000000 ), #45, '', '' );
#45 =  ( CONVERSION_BASED_UNIT( 'MILLIMETRE', #59 )LENGTH_UNIT(  )NAMED_UNIT( #62 ) );
#46 =  ( NAMED_UNIT( #64 )PLANE_ANGLE_UNIT(  )SI_UNIT( $, .RADIAN. ) );
#47 =  ( NAMED_UNIT( #64 )SI_UNIT( $, .STERADIAN. )SOLID_ANGLE_UNIT(  ) );
#49 = COORDINATED_UNIVERSAL_TIME_OFFSET( 1, 0, .AHEAD. );
#50 = PERSON( '', 'UNSPECIFIED', $, $, $, $ );
#51 = ORGANIZATION( 'UNSPECIFIED', 'UNSPECIFIED', 'UNSPECIFIED' );
#52 = APPROVAL_STATUS( 'approved' );
#53 = SECURITY_CLASSIFICATION_LEVEL( 'unclassified' );
#54 = MECHANICAL_CONTEXT( '', #27, 'mechanical' );
#55 = MANIFOLD_SOLID_BREP( '1', #70 );
#56 = AXIS2_PLACEMENT_3D( '', #71, #72, #73 );
#59 = LENGTH_MEASURE_WITH_UNIT( LENGTH_MEASURE( 1.00000000000000 ), #74 );
#62 = DIMENSIONAL_EXPONENTS( 1.00000000000000, 0.000000000000000, 0.000000000000000, 0.000000000000000, 0.000000000000000, 0.000000000000000, 0.000000000000000 );
#64 = DIMENSIONAL_EXPONENTS( 0.000000000000000, 0.000000000000000, 0.000000000000000, 0.000000000000000, 0.000000000000000, 0.000000000000000, 0.000000000000000 );
#70 = CLOSED_SHELL( '', ( #75, #76, #77, #78, #79, #80, #81, #82, #83, #84, #85, #86, #87, #88, #89, #90, #91 ) );
#71 = CARTESIAN_POINT( '', ( 0.000000000000000, 0.000000000000000, 0.000000000000000 ) );
#72 = DIRECTION( '', ( 0.000000000000000, 0.000000000000000, 1.00000000000000 ) );
#73 = DIRECTION( '', ( 1.00000000000000, 0.000000000000000, 0.000000000000000 ) );
#74 =  ( LENGTH_UNIT(  )NAMED_UNIT( #62 )SI_UNIT( .MILLI., .METRE. ) );
#75 = ADVANCED_FACE( '', ( #93 ), #94, .F. );
#76 = ADVANCED_FACE( '', ( #95 ), #96, .T. );
#77 = ADVANCED_FACE( '', ( #97 ), #98, .T. );
#78 = ADVANCED_FACE( '', ( #99 ), #100, .T. );
#79 = ADVANCED_FACE( '', ( #101 ), #102, .T. );
#80 = ADVANCED_FACE( '', ( #103 ), #104, .T. );
#81 = ADVANCED_FACE( '', ( #105 ), #106, .T. );
#82 = ADVANCED_FACE( '', ( #107 ), #108, .T. );
#83 = ADVANCED_FACE( '', ( #109 ), #110, .F. );
#84 = ADVANCED_FACE( '', ( #111, #112 ), #113, .F. );
#85 = ADVANCED_FACE( '', ( #114 ), #115, .T. );
#86 = ADVANCED_FACE( '', ( #116 ), #117, .F. );
#87 = ADVANCED_FACE( '', ( #118 ), #119, .F. );
#88 = ADVANCED_FACE( '', ( #120 ), #121, .T. );
#89 = ADVANCED_FACE( '', ( #122 ), #123, .T. );
#90 = ADVANCED_FACE( '', ( #124 ), #125, .T. );
#91 = ADVANCED_FACE( '', ( #126 ), #127, .T. );
#93 = FACE_OUTER_BOUND( '', #128, .T. );
#94 = TOROIDAL_SURFACE( '', #129, 84.8999999990000, 4.20000000000000 );
#95 = FACE_OUTER_BOUND( '', #130, .T. );
#96 = CONICAL_SURFACE( '', #131, 0.999999999999103, 0.785398163397000 );
#97 = FACE_OUTER_BOUND( '', #132, .T. );
#98 = CYLINDRICAL_SURFACE( '', #133, 77.0999999998000 );
#99 = FACE_OUTER_BOUND( '', #134, .T. );
#100 = CONICAL_SURFACE( '', #135, 0.999999999999103, 0.785398163397000 );
#101 = FACE_OUTER_BOUND( '', #136, .T. );
#102 = CONICAL_SURFACE( '', #137, 1.00000000000110, 0.785398163398000 );
#103 = FACE_OUTER_BOUND( '', #138, .T. );
#104 = CYLINDRICAL_SURFACE( '', #139, 77.0999999998000 );
#105 = FACE_OUTER_BOUND( '', #140, .T. );
#106 = CONICAL_SURFACE( '', #141, 0.999999999999103, 0.785398163397000 );
#107 = FACE_OUTER_BOUND( '', #142, .T. );
#108 = PLANE( '', #143 );
#109 = FACE_OUTER_BOUND( '', #144, .T. );
#110 = TOROIDAL_SURFACE( '', #145, 84.8999999990000, 4.20000000000000 );
#111 = FACE_OUTER_BOUND( '', #146, .T. );
#112 = FACE_BOUND( '', #147, .T. );
#113 = PLANE( '', #148 );
#114 = FACE_OUTER_BOUND( '', #149, .T. );
#115 = PLANE( '', #150 );
#116 = FACE_OUTER_BOUND( '', #151, .T. );
#117 = PLANE( '', #152 );
#118 = FACE_OUTER_BOUND( '', #153, .T. );
#119 = PLANE( '', #154 );
#120 = FACE_OUTER_BOUND( '', #155, .T. );
#121 = PLANE( '', #156 );
#122 = FACE_OUTER_BOUND( '', #157, .T. );
#123 = PLANE( '', #158 );
#124 = FACE_OUTER_BOUND( '', #159, .T. );
#125 = CYLINDRICAL_SURFACE( '', #160, 80.6999999990000 );
#126 = FACE_OUTER_BOUND( '', #161, .T. );
#127 = CYLINDRICAL_SURFACE( '', #162, 80.6999999990000 );
#128 = EDGE_LOOP( '', ( #163, #164, #165, #166 ) );
#129 = AXIS2_PLACEMENT_3D( '', #167, #168, #169 );
#130 = EDGE_LOOP( '', ( #170, #171, #172, #173 ) );
#131 = AXIS2_PLACEMENT_3D( '', #174, #175, #176 );
#132 = EDGE_LOOP( '', ( #177, #178, #179, #180 ) );
#133 = AXIS2_PLACEMENT_3D( '', #181, #182, #183 );
#134 = EDGE_LOOP( '', ( #184, #185, #186, #187 ) );
#135 = AXIS2_PLACEMENT_3D( '', #188, #189, #190 );
#136 = EDGE_LOOP( '', ( #191, #192, #193, #194 ) );
#137 = AXIS2_PLACEMENT_3D( '', #195, #196, #197 );
#138 = EDGE_LOOP( '', ( #198, #199, #200, #201 ) );
#139 = AXIS2_PLACEMENT_3D( '', #202, #203, #204 );
#140 = EDGE_LOOP( '', ( #205, #206, #207, #208 ) );
#141 = AXIS2_PLACEMENT_3D( '', #209, #210, #211 );
#142 = EDGE_LOOP( '', ( #212, #213 ) );
#143 = AXIS2_PLACEMENT_3D( '', #214, #215, #216 );
#144 = EDGE_LOOP( '', ( #217, #218, #219, #220 ) );
#145 = AXIS2_PLACEMENT_3D( '', #221, #222, #223 );
#146 = EDGE_LOOP( '', ( #224, #225, #226, #227 ) );
#147 = EDGE_LOOP( '', ( #228, #229 ) );
#148 = AXIS2_PLACEMENT_3D( '', #230, #231, #232 );
#149 = EDGE_LOOP( '', ( #233, #234, #235, #236 ) );
#150 = AXIS2_PLACEMENT_3D( '', #237, #238, #239 );
#151 = EDGE_LOOP( '', ( #240, #241, #242, #243 ) );
#152 = AXIS2_PLACEMENT_3D( '', #244, #245, #246 );
#153 = EDGE_LOOP( '', ( #247, #248, #249, #250 ) );
#154 = AXIS2_PLACEMENT_3D( '', #251, #252, #253 );
#155 = EDGE_LOOP( '', ( #254, #255, #256, #257 ) );
#156 = AXIS2_PLACEMENT_3D( '', #258, #259, #260 );
#157 = EDGE_LOOP( '', ( #261, #262, #263, #264 ) );
#158 = AXIS2_PLACEMENT_3D( '', #265, #266, #267 );
#159 = EDGE_LOOP( '', ( #268, #269, #270, #271 ) );
#160 = AXIS2_PLACEMENT_3D( '', #272, #273, #274 );
#161 = EDGE_LOOP( '', ( #275, #276, #277, #278 ) );
#162 = AXIS2_PLACEMENT_3D( '', #279, #280, #281 );
#163 = ORIENTED_EDGE( '', *, *, #282, .T. );
#164 = ORIENTED_EDGE( '', *, *, #283, .T. );
#165 = ORIENTED_EDGE( '', *, *, #284, .F. );
#166 = ORIENTED_EDGE( '', *, *, #285, .F. );
#167 = CARTESIAN_POINT( '', ( 20501.6170560000, -2.41584530158000E-013, 1999.10383184000 ) );
#168 = DIRECTION( '', ( 0.107860544993033, 2.21188244278020E-015, -0.994166033836303 ) );
#169 = DIRECTION( '', ( -5.14201951539000E-013, 1.00000000000000, -5.35627032853000E-014 ) );
#170 = ORIENTED_EDGE( '', *, *, #286, .T. );
#171 = ORIENTED_EDGE( '', *, *, #287, .T. );
#172 = ORIENTED_EDGE( '', *, *, #288, .F. );
#173 = ORIENTED_EDGE( '', *, *, #289, .F. );
#174 = CARTESIAN_POINT( '', ( 20490.9496480450, 2.32491951615509E-011, 2097.42685258616 ) );
#175 = DIRECTION( '', ( 0.107860544993656, -5.22144827376051E-013, -0.994166033836236 ) );
#176 = DIRECTION( '', ( 0.860973040881871, 0.499999999999925, 0.0934099720302860 ) );
#177 = ORIENTED_EDGE( '', *, *, #290, .F. );
#178 = ORIENTED_EDGE( '', *, *, #291, .T. );
#179 = ORIENTED_EDGE( '', *, *, #292, .T. );
#180 = ORIENTED_EDGE( '', *, *, #287, .F. );
#181 = CARTESIAN_POINT( '', ( 20499.6432080000, 0.000000000000000, 2017.29707026000 ) );
#182 = DIRECTION( '', ( 0.107860544993033, -0.000000000000000, -0.994166033836304 ) );
#183 = DIRECTION( '', ( 0.000000000000000, -1.00000000000000, 0.000000000000000 ) );
#184 = ORIENTED_EDGE( '', *, *, #293, .T. );
#185 = ORIENTED_EDGE( '', *, *, #294, .T. );
#186 = ORIENTED_EDGE( '', *, *, #295, .F. );
#187 = ORIENTED_EDGE( '', *, *, #296, .F. );
#188 = CARTESIAN_POINT( '', ( 20492.2439746450, 6.04602787579388E-012, 2085.49686017616 ) );
#189 = DIRECTION( '', ( 0.107860544993033, -8.38602468881323E-014, -0.994166033836303 ) );
#190 = DIRECTION( '', ( -9.03852337206000E-015, -1.00000000000000, 8.33717347106000E-014 ) );
#191 = ORIENTED_EDGE( '', *, *, #295, .T. );
#192 = ORIENTED_EDGE( '', *, *, #297, .T. );
#193 = ORIENTED_EDGE( '', *, *, #293, .F. );
#194 = ORIENTED_EDGE( '', *, *, #291, .F. );
#195 = CARTESIAN_POINT( '', ( 20492.2439746450, 5.50966679678928E-012, 2085.49686017616 ) );
#196 = DIRECTION( '', ( 0.107860544992795, -2.14959994248668E-013, -0.994166033836329 ) );
#197 = DIRECTION( '', ( 0.860973040881919, 0.499999999999953, 0.0934099720296913 ) );
#198 = ORIENTED_EDGE( '', *, *, #292, .F. );
#199 = ORIENTED_EDGE( '', *, *, #296, .T. );
#200 = ORIENTED_EDGE( '', *, *, #290, .T. );
#201 = ORIENTED_EDGE( '', *, *, #298, .F. );
#202 = CARTESIAN_POINT( '', ( 20499.6432080000, 0.000000000000000, 2017.29707026000 ) );
#203 = DIRECTION( '', ( 0.107860544993033, -0.000000000000000, -0.994166033836304 ) );
#204 = DIRECTION( '', ( 0.000000000000000, -1.00000000000000, 0.000000000000000 ) );
#205 = ORIENTED_EDGE( '', *, *, #288, .T. );
#206 = ORIENTED_EDGE( '', *, *, #298, .T. );
#207 = ORIENTED_EDGE( '', *, *, #286, .F. );
#208 = ORIENTED_EDGE( '', *, *, #299, .F. );
#209 = CARTESIAN_POINT( '', ( 20490.9496480450, 2.35160039588730E-011, 2097.42685258616 ) );
#210 = DIRECTION( '', ( 0.107860544995010, -3.14434968958248E-013, -0.994166033836089 ) );
#211 = DIRECTION( '', ( -8.05564569390000E-014, -1.00000000000000, 3.07540285228000E-013 ) );
#212 = ORIENTED_EDGE( '', *, *, #289, .T. );
#213 = ORIENTED_EDGE( '', *, *, #299, .T. );
#214 = CARTESIAN_POINT( '', ( 21.3644193311000, 0.000000000000000, -196.918901467000 ) );
#215 = DIRECTION( '', ( -0.107860544993033, 0.000000000000000, 0.994166033836303 ) );
#216 = DIRECTION( '', ( 0.000000000000000, 1.00000000000000, 0.000000000000000 ) );
#217 = ORIENTED_EDGE( '', *, *, #300, .T. );
#218 = ORIENTED_EDGE( '', *, *, #285, .T. );
#219 = ORIENTED_EDGE( '', *, *, #301, .F. );
#220 = ORIENTED_EDGE( '', *, *, #283, .F. );
#221 = CARTESIAN_POINT( '', ( 20501.6170560000, -2.59348098552000E-013, 1999.10383184000 ) );
#222 = DIRECTION( '', ( 0.107860544993033, 0.000000000000000, -0.994166033836303 ) );
#223 = DIRECTION( '', ( 0.000000000000000, -1.00000000000000, 0.000000000000000 ) );
#224 = ORIENTED_EDGE( '', *, *, #302, .F. );
#225 = ORIENTED_EDGE( '', *, *, #303, .F. );
#226 = ORIENTED_EDGE( '', *, *, #304, .F. );
#227 = ORIENTED_EDGE( '', *, *, #305, .F. );
#228 = ORIENTED_EDGE( '', *, *, #301, .T. );
#229 = ORIENTED_EDGE( '', *, *, #284, .T. );
#230 = CARTESIAN_POINT( '', ( 24.6002356809000, 0.000000000000000, -226.743882482000 ) );
#231 = DIRECTION( '', ( 0.107860544993033, 0.000000000000000, -0.994166033836303 ) );
#232 = DIRECTION( '', ( 0.000000000000000, -1.00000000000000, 0.000000000000000 ) );
#233 = ORIENTED_EDGE( '', *, *, #306, .T. );
#234 = ORIENTED_EDGE( '', *, *, #307, .T. );
#235 = ORIENTED_EDGE( '', *, *, #308, .T. );
#236 = ORIENTED_EDGE( '', *, *, #309, .T. );
#237 = CARTESIAN_POINT( '', ( 27.2967493057000, 0.000000000000000, -251.598033328000 ) );
#238 = DIRECTION( '', ( 0.107860544993033, 0.000000000000000, -0.994166033836303 ) );
#239 = DIRECTION( '', ( 0.000000000000000, -1.00000000000000, 0.000000000000000 ) );
#240 = ORIENTED_EDGE( '', *, *, #310, .F. );
#241 = ORIENTED_EDGE( '', *, *, #302, .T. );
#242 = ORIENTED_EDGE( '', *, *, #311, .T. );
#243 = ORIENTED_EDGE( '', *, *, #309, .F. );
#244 = CARTESIAN_POINT( '', ( 20597.9076759000, -102.599999996000, 2005.32609103000 ) );
#245 = DIRECTION( '', ( -0.994166033836303, 0.000000000000000, -0.107860544993033 ) );
#246 = DIRECTION( '', ( -0.107860544993033, 0.000000000000000, 0.994166033836303 ) );
#247 = ORIENTED_EDGE( '', *, *, #312, .F. );
#248 = ORIENTED_EDGE( '', *, *, #304, .T. );
#249 = ORIENTED_EDGE( '', *, *, #313, .T. );
#250 = ORIENTED_EDGE( '', *, *, #307, .F. );
#251 = CARTESIAN_POINT( '', ( 20394.4018888000, 102.599999996000, 1983.24703747000 ) );
#252 = DIRECTION( '', ( 0.994166033836303, 0.000000000000000, 0.107860544993033 ) );
#253 = DIRECTION( '', ( 0.000000000000000, -1.00000000000000, 0.000000000000000 ) );
#254 = ORIENTED_EDGE( '', *, *, #313, .F. );
#255 = ORIENTED_EDGE( '', *, *, #303, .T. );
#256 = ORIENTED_EDGE( '', *, *, #310, .T. );
#257 = ORIENTED_EDGE( '', *, *, #308, .F. );
#258 = CARTESIAN_POINT( '', ( 20394.4018888000, 102.599999996000, 1983.24703747000 ) );
#259 = DIRECTION( '', ( -0.000000000000000, 1.00000000000000, 0.000000000000000 ) );
#260 = DIRECTION( '', ( 1.00000000000000, 0.000000000000000, 0.000000000000000 ) );
#261 = ORIENTED_EDGE( '', *, *, #311, .F. );
#262 = ORIENTED_EDGE( '', *, *, #305, .T. );
#263 = ORIENTED_EDGE( '', *, *, #312, .T. );
#264 = ORIENTED_EDGE( '', *, *, #306, .F. );
#265 = CARTESIAN_POINT( '', ( 20597.9076759000, -102.599999996000, 2005.32609103000 ) );
#266 = DIRECTION( '', ( 0.000000000000000, -1.00000000000000, 0.000000000000000 ) );
#267 = DIRECTION( '', ( 0.000000000000000, 0.000000000000000, -1.00000000000000 ) );
#268 = ORIENTED_EDGE( '', *, *, #314, .F. );
#269 = ORIENTED_EDGE( '', *, *, #300, .F. );
#270 = ORIENTED_EDGE( '', *, *, #315, .T. );
#271 = ORIENTED_EDGE( '', *, *, #297, .F. );
#272 = CARTESIAN_POINT( '', ( 20501.2611162000, 0.000000000000000, 2002.38457975000 ) );
#273 = DIRECTION( '', ( 0.107860544993033, -0.000000000000000, -0.994166033836303 ) );
#274 = DIRECTION( '', ( 0.000000000000000, -1.00000000000000, 0.000000000000000 ) );
#275 = ORIENTED_EDGE( '', *, *, #315, .F. );
#276 = ORIENTED_EDGE( '', *, *, #282, .F. );
#277 = ORIENTED_EDGE( '', *, *, #314, .T. );
#278 = ORIENTED_EDGE( '', *, *, #294, .F. );
#279 = CARTESIAN_POINT( '', ( 20501.2611162000, 0.000000000000000, 2002.38457975000 ) );
#280 = DIRECTION( '', ( 0.107860544993033, -0.000000000000000, -0.994166033836303 ) );
#281 = DIRECTION( '', ( 0.000000000000000, -1.00000000000000, 0.000000000000000 ) );
#282 = EDGE_CURVE( '', #316, #317, #318, .T. );
#283 = EDGE_CURVE( '', #317, #319, #320, .T. );
#284 = EDGE_CURVE( '', #321, #319, #322, .T. );
#285 = EDGE_CURVE( '', #316, #321, #323, .T. );
#286 = EDGE_CURVE( '', #324, #325, #326, .T. );
#287 = EDGE_CURVE( '', #325, #327, #328, .T. );
#288 = EDGE_CURVE( '', #329, #327, #330, .T. );
#289 = EDGE_CURVE( '', #324, #329, #331, .T. );
#290 = EDGE_CURVE( '', #332, #325, #333, .T. );
#291 = EDGE_CURVE( '', #332, #334, #335, .T. );
#292 = EDGE_CURVE( '', #334, #327, #336, .T. );
#293 = EDGE_CURVE( '', #334, #337, #338, .T. );
#294 = EDGE_CURVE( '', #337, #339, #340, .T. );
#295 = EDGE_CURVE( '', #332, #339, #341, .T. );
#296 = EDGE_CURVE( '', #334, #332, #342, .T. );
#297 = EDGE_CURVE( '', #339, #337, #343, .T. );
#298 = EDGE_CURVE( '', #327, #325, #344, .T. );
#299 = EDGE_CURVE( '', #329, #324, #345, .T. );
#300 = EDGE_CURVE( '', #317, #316, #346, .T. );
#301 = EDGE_CURVE( '', #319, #321, #347, .T. );
#302 = EDGE_CURVE( '', #348, #349, #350, .T. );
#303 = EDGE_CURVE( '', #351, #348, #352, .T. );
#304 = EDGE_CURVE( '', #353, #351, #354, .T. );
#305 = EDGE_CURVE( '', #349, #353, #355, .T. );
#306 = EDGE_CURVE( '', #356, #357, #358, .T. );
#307 = EDGE_CURVE( '', #357, #359, #360, .T. );
#308 = EDGE_CURVE( '', #359, #361, #362, .T. );
#309 = EDGE_CURVE( '', #361, #356, #363, .T. );
#310 = EDGE_CURVE( '', #348, #361, #364, .T. );
#311 = EDGE_CURVE( '', #349, #356, #365, .T. );
#312 = EDGE_CURVE( '', #353, #357, #366, .T. );
#313 = EDGE_CURVE( '', #351, #359, #367, .T. );
#314 = EDGE_CURVE( '', #316, #339, #368, .T. );
#315 = EDGE_CURVE( '', #317, #337, #369, .T. );
#316 = VERTEX_POINT( '', #370 );
#317 = VERTEX_POINT( '', #371 );
#318 = CIRCLE( '', #372, 80.6999999990000 );
#319 = VERTEX_POINT( '', #373 );
#320 = CIRCLE( '', #374, 4.20000000000000 );
#321 = VERTEX_POINT( '', #375 );
#322 = CIRCLE( '', #376, 84.8999999990000 );
#323 = CIRCLE( '', #377, 4.20000000000000 );
#324 = VERTEX_POINT( '', #378 );
#325 = VERTEX_POINT( '', #379 );
#326 = LINE( '', #380, #381 );
#327 = VERTEX_POINT( '', #382 );
#328 = CIRCLE( '', #383, 77.0999999998000 );
#329 = VERTEX_POINT( '', #384 );
#330 = LINE( '', #385, #386 );
#331 = CIRCLE( '', #387, 74.0999999998000 );
#332 = VERTEX_POINT( '', #388 );
#333 = LINE( '', #389, #390 );
#334 = VERTEX_POINT( '', #391 );
#335 = CIRCLE( '', #392, 77.0999999990000 );
#336 = LINE( '', #393, #394 );
#337 = VERTEX_POINT( '', #395 );
#338 = LINE( '', #396, #397 );
#339 = VERTEX_POINT( '', #398 );
#340 = CIRCLE( '', #399, 80.6999999990000 );
#341 = LINE( '', #400, #401 );
#342 = CIRCLE( '', #402, 77.0999999990000 );
#343 = CIRCLE( '', #403, 80.6999999990000 );
#344 = CIRCLE( '', #404, 77.0999999998000 );
#345 = CIRCLE( '', #405, 74.0999999998000 );
#346 = CIRCLE( '', #406, 80.6999999990000 );
#347 = CIRCLE( '', #407, 84.8999999990000 );
#348 = VERTEX_POINT( '', #408 );
#349 = VERTEX_POINT( '', #409 );
#350 = LINE( '', #410, #411 );
#351 = VERTEX_POINT( '', #412 );
#352 = LINE( '', #413, #414 );
#353 = VERTEX_POINT( '', #415 );
#354 = LINE( '', #416, #417 );
#355 = LINE( '', #418, #419 );
#356 = VERTEX_POINT( '', #420 );
#357 = VERTEX_POINT( '', #421 );
#358 = LINE( '', #422, #423 );
#359 = VERTEX_POINT( '', #424 );
#360 = LINE( '', #425, #426 );
#361 = VERTEX_POINT( '', #427 );
#362 = LINE( '', #428, #429 );
#363 = LINE( '', #430, #431 );
#364 = LINE( '', #432, #433 );
#365 = LINE( '', #434, #435 );
#366 = LINE( '', #436, #437 );
#367 = LINE( '', #438, #439 );
#368 = LINE( '', #440, #441 );
#369 = LINE( '', #442, #443 );
#370 = CARTESIAN_POINT( '', ( 20501.6170560000, 80.6999999990000, 1999.10383184000 ) );
#371 = CARTESIAN_POINT( '', ( 20501.6170560000, -80.6999999990000, 1999.10383184000 ) );
#372 = AXIS2_PLACEMENT_3D( '', #444, #445, #446 );
#373 = CARTESIAN_POINT( '', ( 20502.0700702000, -84.8999999990000, 1994.92833449000 ) );
#374 = AXIS2_PLACEMENT_3D( '', #447, #448, #449 );
#375 = CARTESIAN_POINT( '', ( 20502.0700702000, 84.8999999990000, 1994.92833449000 ) );
#376 = AXIS2_PLACEMENT_3D( '', #450, #451, #452 );
#377 = AXIS2_PLACEMENT_3D( '', #453, #454, #455 );
#378 = CARTESIAN_POINT( '', ( 20498.8342539000, 74.0999999998000, 2024.75331551000 ) );
#379 = CARTESIAN_POINT( '', ( 20499.1578355000, 77.0999999998000, 2021.77081741000 ) );
#380 = CARTESIAN_POINT( '', ( 20498.9960447000, 75.5999999998000, 2023.26206646000 ) );
#381 = VECTOR( '', #456, 1000.00000000000 );
#382 = CARTESIAN_POINT( '', ( 20499.1578355000, -77.0999999998000, 2021.77081741000 ) );
#383 = AXIS2_PLACEMENT_3D( '', #457, #458, #459 );
#384 = CARTESIAN_POINT( '', ( 20498.8342539000, -74.0999999998000, 2024.75331551000 ) );
#385 = CARTESIAN_POINT( '', ( 20498.9960447000, -75.5999999998000, 2023.26206646000 ) );
#386 = VECTOR( '', #460, 1000.00000000000 );
#387 = AXIS2_PLACEMENT_3D( '', #461, #462, #463 );
#388 = CARTESIAN_POINT( '', ( 20500.4521621000, 77.0999999998000, 2009.84082500000 ) );
#389 = CARTESIAN_POINT( '', ( 20499.6432080000, 77.0999999998000, 2017.29707026000 ) );
#390 = VECTOR( '', #464, 1000.00000000000 );
#391 = CARTESIAN_POINT( '', ( 20500.4521621000, -77.0999999990000, 2009.84082500000 ) );
#392 = AXIS2_PLACEMENT_3D( '', #465, #466, #467 );
#393 = CARTESIAN_POINT( '', ( 20499.6432080000, -77.0999999998000, 2017.29707026000 ) );
#394 = VECTOR( '', #468, 1000.00000000000 );
#395 = CARTESIAN_POINT( '', ( 20500.8404600000, -80.6999999990000, 2006.26182728000 ) );
#396 = CARTESIAN_POINT( '', ( 20500.6463111000, -78.8999999990000, 2008.05132614000 ) );
#397 = VECTOR( '', #469, 1000.00000000000 );
#398 = CARTESIAN_POINT( '', ( 20500.8404600000, 80.6999999990000, 2006.26182728000 ) );
#399 = AXIS2_PLACEMENT_3D( '', #470, #471, #472 );
#400 = CARTESIAN_POINT( '', ( 20500.6463111000, 78.8999999990000, 2008.05132614000 ) );
#401 = VECTOR( '', #473, 1000.00000000000 );
#402 = AXIS2_PLACEMENT_3D( '', #474, #475, #476 );
#403 = AXIS2_PLACEMENT_3D( '', #477, #478, #479 );
#404 = AXIS2_PLACEMENT_3D( '', #480, #481, #482 );
#405 = AXIS2_PLACEMENT_3D( '', #483, #484, #485 );
#406 = AXIS2_PLACEMENT_3D( '', #486, #487, #488 );
#407 = AXIS2_PLACEMENT_3D( '', #489, #490, #491 );
#408 = CARTESIAN_POINT( '', ( 20597.9076759000, 102.599999996000, 2005.32609103000 ) );
#409 = CARTESIAN_POINT( '', ( 20597.9076759000, -102.599999996000, 2005.32609103000 ) );
#410 = CARTESIAN_POINT( '', ( 20597.9076759000, 1.69819713847000E-011, 2005.32609103000 ) );
#411 = VECTOR( '', #492, 1000.00000000000 );
#412 = CARTESIAN_POINT( '', ( 20394.4018888000, 102.599999996000, 1983.24703747000 ) );
#413 = CARTESIAN_POINT( '', ( 20496.1547823000, 102.599999996000, 1994.28656425000 ) );
#414 = VECTOR( '', #493, 1000.00000000000 );
#415 = CARTESIAN_POINT( '', ( 20394.4018888000, -102.599999996000, 1983.24703747000 ) );
#416 = CARTESIAN_POINT( '', ( 20394.4018888000, 1.69819713847000E-011, 1983.24703747000 ) );
#417 = VECTOR( '', #494, 1000.00000000000 );
#418 = CARTESIAN_POINT( '', ( 20496.1547823000, -102.599999996000, 1994.28656425000 ) );
#419 = VECTOR( '', #495, 1000.00000000000 );
#420 = CARTESIAN_POINT( '', ( 20600.6041895000, -102.599999996000, 1980.47194019000 ) );
#421 = CARTESIAN_POINT( '', ( 20397.0984024000, -102.599999996000, 1958.39288663000 ) );
#422 = CARTESIAN_POINT( '', ( 20498.8512960000, -102.599999996000, 1969.43241341000 ) );
#423 = VECTOR( '', #496, 1000.00000000000 );
#424 = CARTESIAN_POINT( '', ( 20397.0984024000, 102.599999996000, 1958.39288663000 ) );
#425 = CARTESIAN_POINT( '', ( 20397.0984024000, 1.69819713847000E-011, 1958.39288663000 ) );
#426 = VECTOR( '', #497, 1000.00000000000 );
#427 = CARTESIAN_POINT( '', ( 20600.6041895000, 102.599999996000, 1980.47194019000 ) );
#428 = CARTESIAN_POINT( '', ( 20498.8512960000, 102.599999996000, 1969.43241341000 ) );
#429 = VECTOR( '', #498, 1000.00000000000 );
#430 = CARTESIAN_POINT( '', ( 20600.6041895000, 1.69819713847000E-011, 1980.47194019000 ) );
#431 = VECTOR( '', #499, 1000.00000000000 );
#432 = CARTESIAN_POINT( '', ( 20599.2559327000, 102.599999996000, 1992.89901561000 ) );
#433 = VECTOR( '', #500, 1000.00000000000 );
#434 = CARTESIAN_POINT( '', ( 20599.2559327000, -102.599999996000, 1992.89901561000 ) );
#435 = VECTOR( '', #501, 1000.00000000000 );
#436 = CARTESIAN_POINT( '', ( 20395.7501456000, -102.599999996000, 1970.81996205000 ) );
#437 = VECTOR( '', #502, 1000.00000000000 );
#438 = CARTESIAN_POINT( '', ( 20395.7501456000, 102.599999996000, 1970.81996205000 ) );
#439 = VECTOR( '', #503, 1000.00000000000 );
#440 = CARTESIAN_POINT( '', ( 20501.2611162000, 80.6999999990000, 2002.38457975000 ) );
#441 = VECTOR( '', #504, 1000.00000000000 );
#442 = CARTESIAN_POINT( '', ( 20501.2611162000, -80.6999999990000, 2002.38457975000 ) );
#443 = VECTOR( '', #505, 1000.00000000000 );
#444 = CARTESIAN_POINT( '', ( 20501.6170560000, -2.41584530158000E-013, 1999.10383184000 ) );
#445 = DIRECTION( '', ( 0.107860544993033, 1.10328413072034E-015, -0.994166033836303 ) );
#446 = DIRECTION( '', ( 0.994166033836303, -1.19699148403268E-016, 0.107860544993033 ) );
#447 = CARTESIAN_POINT( '', ( 20501.6170560000, -84.8999999990000, 1999.10383184000 ) );
#448 = DIRECTION( '', ( -0.994166033836304, -8.47521313067253E-014, -0.107860544993032 ) );
#449 = DIRECTION( '', ( 0.107860544993032, -7.81172487546987E-013, -0.994166033836303 ) );
#450 = CARTESIAN_POINT( '', ( 20502.0700702000, -2.36950736809000E-013, 1994.92833449000 ) );
#451 = DIRECTION( '', ( 0.107860544993033, 1.10328413072034E-015, -0.994166033836303 ) );
#452 = DIRECTION( '', ( 0.994166033836303, -1.19699148403268E-016, 0.107860544993033 ) );
#453 = CARTESIAN_POINT( '', ( 20501.6170560000, 84.8999999990000, 1999.10383184000 ) );
#454 = DIRECTION( '', ( 0.994166033836304, -8.52713084974255E-014, 0.107860544993032 ) );
#455 = DIRECTION( '', ( 0.107860544993032, 7.85957817795133E-013, -0.994166033836303 ) );
#456 = DIRECTION( '', ( 0.0762689227874267, 0.707106781186247, -0.702981544151246 ) );
#457 = CARTESIAN_POINT( '', ( 20499.1578355000, 0.000000000000000, 2021.77081741000 ) );
#458 = DIRECTION( '', ( -0.107860544993033, 0.000000000000000, 0.994166033836304 ) );
#459 = DIRECTION( '', ( 0.994166033836304, 0.000000000000000, 0.107860544993033 ) );
#460 = DIRECTION( '', ( 0.0762689227873728, -0.707106781186747, -0.702981544150749 ) );
#461 = CARTESIAN_POINT( '', ( 20498.8342539000, 1.30977554519000E-012, 2024.75331551000 ) );
#462 = DIRECTION( '', ( -0.107860544993033, 0.000000000000000, 0.994166033836303 ) );
#463 = DIRECTION( '', ( 0.994166033836304, 0.000000000000000, 0.107860544993033 ) );
#464 = DIRECTION( '', ( -0.107860544993033, 0.000000000000000, 0.994166033836303 ) );
#465 = CARTESIAN_POINT( '', ( 20500.4521621000, -3.48165940521000E-013, 2009.84082500000 ) );
#466 = DIRECTION( '', ( -0.107860544993033, -7.81111286763239E-014, 0.994166033836303 ) );
#467 = DIRECTION( '', ( 0.994166033836303, -8.47454914199620E-015, 0.107860544993033 ) );
#468 = DIRECTION( '', ( -0.107860544993033, 0.000000000000000, 0.994166033836303 ) );
#469 = DIRECTION( '', ( 0.0762689227867763, -0.707106781186780, -0.702981544150781 ) );
#470 = CARTESIAN_POINT( '', ( 20500.8404600000, 0.000000000000000, 2006.26182728000 ) );
#471 = DIRECTION( '', ( -0.107860544993033, 0.000000000000000, 0.994166033836303 ) );
#472 = DIRECTION( '', ( 0.994166033836303, 0.000000000000000, 0.107860544993033 ) );
#473 = DIRECTION( '', ( 0.0762689227868302, 0.707106781186280, -0.702981544151278 ) );
#474 = CARTESIAN_POINT( '', ( 20500.4521621000, -3.37507799487000E-013, 2009.84082500000 ) );
#475 = DIRECTION( '', ( -0.107860544993033, 0.000000000000000, 0.994166033836303 ) );
#476 = DIRECTION( '', ( 0.994166033836303, 0.000000000000000, 0.107860544993033 ) );
#477 = CARTESIAN_POINT( '', ( 20500.8404600000, 0.000000000000000, 2006.26182728000 ) );
#478 = DIRECTION( '', ( -0.107860544993033, 0.000000000000000, 0.994166033836303 ) );
#479 = DIRECTION( '', ( 0.994166033836303, 0.000000000000000, 0.107860544993033 ) );
#480 = CARTESIAN_POINT( '', ( 20499.1578355000, 0.000000000000000, 2021.77081741000 ) );
#481 = DIRECTION( '', ( -0.107860544993033, 0.000000000000000, 0.994166033836304 ) );
#482 = DIRECTION( '', ( 0.994166033836304, 0.000000000000000, 0.107860544993033 ) );
#483 = CARTESIAN_POINT( '', ( 20498.8342539000, 1.30977554519000E-012, 2024.75331551000 ) );
#484 = DIRECTION( '', ( -0.107860544993033, 0.000000000000000, 0.994166033836303 ) );
#485 = DIRECTION( '', ( 0.994166033836304, 0.000000000000000, 0.107860544993033 ) );
#486 = CARTESIAN_POINT( '', ( 20501.6170560000, -2.59348098552000E-013, 1999.10383184000 ) );
#487 = DIRECTION( '', ( 0.107860544993033, 0.000000000000000, -0.994166033836303 ) );
#488 = DIRECTION( '', ( 0.994166033836303, 0.000000000000000, 0.107860544993033 ) );
#489 = CARTESIAN_POINT( '', ( 20502.0700702000, -2.59348098552000E-013, 1994.92833449000 ) );
#490 = DIRECTION( '', ( 0.107860544993033, 0.000000000000000, -0.994166033836303 ) );
#491 = DIRECTION( '', ( 0.994166033836303, 0.000000000000000, 0.107860544993033 ) );
#492 = DIRECTION( '', ( -0.000000000000000, -1.00000000000000, -0.000000000000000 ) );
#493 = DIRECTION( '', ( 0.994166033836303, 0.000000000000000, 0.107860544993033 ) );
#494 = DIRECTION( '', ( -0.000000000000000, 1.00000000000000, -0.000000000000000 ) );
#495 = DIRECTION( '', ( -0.994166033836303, 0.000000000000000, -0.107860544993033 ) );
#496 = DIRECTION( '', ( -0.994166033836303, 0.000000000000000, -0.107860544993033 ) );
#497 = DIRECTION( '', ( -0.000000000000000, 1.00000000000000, -0.000000000000000 ) );
#498 = DIRECTION( '', ( 0.994166033836303, 0.000000000000000, 0.107860544993033 ) );
#499 = DIRECTION( '', ( -0.000000000000000, -1.00000000000000, -0.000000000000000 ) );
#500 = DIRECTION( '', ( 0.107860544993033, 0.000000000000000, -0.994166033836303 ) );
#501 = DIRECTION( '', ( 0.107860544993033, 0.000000000000000, -0.994166033836303 ) );
#502 = DIRECTION( '', ( 0.107860544993033, 0.000000000000000, -0.994166033836303 ) );
#503 = DIRECTION( '', ( 0.107860544993033, 0.000000000000000, -0.994166033836303 ) );
#504 = DIRECTION( '', ( -0.107860544993033, 0.000000000000000, 0.994166033836303 ) );
#505 = DIRECTION( '', ( -0.107860544993033, 0.000000000000000, 0.994166033836303 ) );
ENDSEC;
END-ISO-10303-21;
