ISO-10303-21;
HEADER;
/* Generated by software containing ST-Developer
 * from STEP Tools, Inc. (www.steptools.com) 
 */

FILE_DESCRIPTION(
/* description */ (''),
/* implementation_level */ '2;1');

FILE_NAME(
/* name */ 'base radiateur moteur rc v1.step',
/* time_stamp */ '2023-01-03T20:45:45+01:00',
/* author */ (''),
/* organization */ (''),
/* preprocessor_version */ 'ST-DEVELOPER v19.2',
/* originating_system */ 'Autodesk Translation Framework v11.17.0.187',

/* authorisation */ '');

FILE_SCHEMA (('AUTOMOTIVE_DESIGN { 1 0 10303 214 3 1 1 }'));
ENDSEC;

DATA;
#10=MECHANICAL_DESIGN_GEOMETRIC_PRESENTATION_REPRESENTATION('',(#13),#560);
#11=SHAPE_REPRESENTATION_RELATIONSHIP('SRR','None',#567,#12);
#12=ADVANCED_BREP_SHAPE_REPRESENTATION('',(#14),#559);
#13=STYLED_ITEM('',(#576),#14);
#14=MANIFOLD_SOLID_BREP('Corps1',#320);
#15=FACE_BOUND('',#59,.T.);
#16=FACE_BOUND('',#60,.T.);
#17=FACE_BOUND('',#61,.T.);
#18=FACE_BOUND('',#62,.T.);
#19=FACE_BOUND('',#63,.T.);
#20=FACE_BOUND('',#77,.T.);
#21=FACE_BOUND('',#78,.T.);
#22=FACE_BOUND('',#79,.T.);
#23=FACE_BOUND('',#80,.T.);
#24=FACE_BOUND('',#81,.T.);
#25=FACE_BOUND('',#82,.T.);
#26=FACE_BOUND('',#83,.T.);
#27=FACE_BOUND('',#84,.T.);
#28=FACE_BOUND('',#85,.T.);
#29=FACE_BOUND('',#86,.T.);
#30=FACE_BOUND('',#87,.T.);
#31=FACE_BOUND('',#89,.T.);
#32=FACE_BOUND('',#90,.T.);
#33=FACE_BOUND('',#91,.T.);
#34=FACE_BOUND('',#92,.T.);
#35=FACE_BOUND('',#93,.T.);
#36=FACE_BOUND('',#94,.T.);
#37=FACE_BOUND('',#95,.T.);
#38=PLANE('',#337);
#39=PLANE('',#374);
#40=PLANE('',#375);
#41=FACE_OUTER_BOUND('',#57,.T.);
#42=FACE_OUTER_BOUND('',#58,.T.);
#43=FACE_OUTER_BOUND('',#64,.T.);
#44=FACE_OUTER_BOUND('',#65,.T.);
#45=FACE_OUTER_BOUND('',#66,.T.);
#46=FACE_OUTER_BOUND('',#67,.T.);
#47=FACE_OUTER_BOUND('',#68,.T.);
#48=FACE_OUTER_BOUND('',#69,.T.);
#49=FACE_OUTER_BOUND('',#70,.T.);
#50=FACE_OUTER_BOUND('',#71,.T.);
#51=FACE_OUTER_BOUND('',#72,.T.);
#52=FACE_OUTER_BOUND('',#73,.T.);
#53=FACE_OUTER_BOUND('',#74,.T.);
#54=FACE_OUTER_BOUND('',#75,.T.);
#55=FACE_OUTER_BOUND('',#76,.T.);
#56=FACE_OUTER_BOUND('',#88,.T.);
#57=EDGE_LOOP('',(#213,#214,#215,#216));
#58=EDGE_LOOP('',(#217));
#59=EDGE_LOOP('',(#218));
#60=EDGE_LOOP('',(#219));
#61=EDGE_LOOP('',(#220));
#62=EDGE_LOOP('',(#221));
#63=EDGE_LOOP('',(#222));
#64=EDGE_LOOP('',(#223,#224,#225,#226));
#65=EDGE_LOOP('',(#227,#228,#229,#230));
#66=EDGE_LOOP('',(#231,#232,#233,#234));
#67=EDGE_LOOP('',(#235,#236,#237,#238));
#68=EDGE_LOOP('',(#239,#240,#241,#242));
#69=EDGE_LOOP('',(#243,#244,#245,#246));
#70=EDGE_LOOP('',(#247,#248,#249,#250));
#71=EDGE_LOOP('',(#251,#252,#253,#254));
#72=EDGE_LOOP('',(#255,#256,#257,#258));
#73=EDGE_LOOP('',(#259,#260,#261,#262));
#74=EDGE_LOOP('',(#263,#264,#265,#266));
#75=EDGE_LOOP('',(#267,#268,#269,#270));
#76=EDGE_LOOP('',(#271));
#77=EDGE_LOOP('',(#272));
#78=EDGE_LOOP('',(#273));
#79=EDGE_LOOP('',(#274));
#80=EDGE_LOOP('',(#275));
#81=EDGE_LOOP('',(#276));
#82=EDGE_LOOP('',(#277));
#83=EDGE_LOOP('',(#278));
#84=EDGE_LOOP('',(#279));
#85=EDGE_LOOP('',(#280));
#86=EDGE_LOOP('',(#281));
#87=EDGE_LOOP('',(#282));
#88=EDGE_LOOP('',(#283));
#89=EDGE_LOOP('',(#284));
#90=EDGE_LOOP('',(#285));
#91=EDGE_LOOP('',(#286));
#92=EDGE_LOOP('',(#287));
#93=EDGE_LOOP('',(#288));
#94=EDGE_LOOP('',(#289));
#95=EDGE_LOOP('',(#290));
#96=LINE('',#480,#109);
#97=LINE('',#497,#110);
#98=LINE('',#503,#111);
#99=LINE('',#508,#112);
#100=LINE('',#513,#113);
#101=LINE('',#519,#114);
#102=LINE('',#524,#115);
#103=LINE('',#528,#116);
#104=LINE('',#532,#117);
#105=LINE('',#537,#118);
#106=LINE('',#543,#119);
#107=LINE('',#548,#120);
#108=LINE('',#553,#121);
#109=VECTOR('',#382,18.);
#110=VECTOR('',#401,2.25);
#111=VECTOR('',#408,2.25);
#112=VECTOR('',#415,6.5);
#113=VECTOR('',#420,2.25);
#114=VECTOR('',#427,2.25);
#115=VECTOR('',#434,1.5);
#116=VECTOR('',#439,1.5);
#117=VECTOR('',#444,1.5);
#118=VECTOR('',#449,2.25);
#119=VECTOR('',#456,2.25);
#120=VECTOR('',#463,1.5);
#121=VECTOR('',#468,28.75);
#122=CIRCLE('',#335,18.);
#123=CIRCLE('',#336,18.);
#124=CIRCLE('',#338,1.5);
#125=CIRCLE('',#339,1.5);
#126=CIRCLE('',#340,1.5);
#127=CIRCLE('',#341,6.5);
#128=CIRCLE('',#342,1.5);
#129=CIRCLE('',#344,2.25);
#130=CIRCLE('',#345,2.25);
#131=CIRCLE('',#347,2.25);
#132=CIRCLE('',#348,2.25);
#133=CIRCLE('',#350,6.5);
#134=CIRCLE('',#352,2.25);
#135=CIRCLE('',#353,2.25);
#136=CIRCLE('',#355,2.25);
#137=CIRCLE('',#356,2.25);
#138=CIRCLE('',#358,1.5);
#139=CIRCLE('',#360,1.5);
#140=CIRCLE('',#362,1.5);
#141=CIRCLE('',#364,2.25);
#142=CIRCLE('',#365,2.25);
#143=CIRCLE('',#367,2.25);
#144=CIRCLE('',#368,2.25);
#145=CIRCLE('',#370,1.5);
#146=CIRCLE('',#372,28.75);
#147=CIRCLE('',#373,28.75);
#148=VERTEX_POINT('',#477);
#149=VERTEX_POINT('',#479);
#150=VERTEX_POINT('',#483);
#151=VERTEX_POINT('',#485);
#152=VERTEX_POINT('',#487);
#153=VERTEX_POINT('',#489);
#154=VERTEX_POINT('',#491);
#155=VERTEX_POINT('',#494);
#156=VERTEX_POINT('',#496);
#157=VERTEX_POINT('',#500);
#158=VERTEX_POINT('',#502);
#159=VERTEX_POINT('',#506);
#160=VERTEX_POINT('',#510);
#161=VERTEX_POINT('',#512);
#162=VERTEX_POINT('',#516);
#163=VERTEX_POINT('',#518);
#164=VERTEX_POINT('',#522);
#165=VERTEX_POINT('',#526);
#166=VERTEX_POINT('',#530);
#167=VERTEX_POINT('',#534);
#168=VERTEX_POINT('',#536);
#169=VERTEX_POINT('',#540);
#170=VERTEX_POINT('',#542);
#171=VERTEX_POINT('',#546);
#172=VERTEX_POINT('',#550);
#173=VERTEX_POINT('',#552);
#174=EDGE_CURVE('',#148,#148,#122,.T.);
#175=EDGE_CURVE('',#148,#149,#96,.T.);
#176=EDGE_CURVE('',#149,#149,#123,.T.);
#177=EDGE_CURVE('',#150,#150,#124,.T.);
#178=EDGE_CURVE('',#151,#151,#125,.T.);
#179=EDGE_CURVE('',#152,#152,#126,.T.);
#180=EDGE_CURVE('',#153,#153,#127,.T.);
#181=EDGE_CURVE('',#154,#154,#128,.T.);
#182=EDGE_CURVE('',#155,#155,#129,.T.);
#183=EDGE_CURVE('',#155,#156,#97,.T.);
#184=EDGE_CURVE('',#156,#156,#130,.T.);
#185=EDGE_CURVE('',#157,#157,#131,.T.);
#186=EDGE_CURVE('',#157,#158,#98,.T.);
#187=EDGE_CURVE('',#158,#158,#132,.T.);
#188=EDGE_CURVE('',#159,#159,#133,.T.);
#189=EDGE_CURVE('',#159,#153,#99,.T.);
#190=EDGE_CURVE('',#160,#160,#134,.T.);
#191=EDGE_CURVE('',#160,#161,#100,.T.);
#192=EDGE_CURVE('',#161,#161,#135,.T.);
#193=EDGE_CURVE('',#162,#162,#136,.T.);
#194=EDGE_CURVE('',#162,#163,#101,.T.);
#195=EDGE_CURVE('',#163,#163,#137,.T.);
#196=EDGE_CURVE('',#164,#164,#138,.T.);
#197=EDGE_CURVE('',#164,#152,#102,.T.);
#198=EDGE_CURVE('',#165,#165,#139,.T.);
#199=EDGE_CURVE('',#165,#150,#103,.T.);
#200=EDGE_CURVE('',#166,#166,#140,.T.);
#201=EDGE_CURVE('',#166,#151,#104,.T.);
#202=EDGE_CURVE('',#167,#167,#141,.T.);
#203=EDGE_CURVE('',#167,#168,#105,.T.);
#204=EDGE_CURVE('',#168,#168,#142,.T.);
#205=EDGE_CURVE('',#169,#169,#143,.T.);
#206=EDGE_CURVE('',#169,#170,#106,.T.);
#207=EDGE_CURVE('',#170,#170,#144,.T.);
#208=EDGE_CURVE('',#171,#171,#145,.T.);
#209=EDGE_CURVE('',#171,#154,#107,.T.);
#210=EDGE_CURVE('',#172,#172,#146,.T.);
#211=EDGE_CURVE('',#172,#173,#108,.T.);
#212=EDGE_CURVE('',#173,#173,#147,.T.);
#213=ORIENTED_EDGE('',*,*,#174,.F.);
#214=ORIENTED_EDGE('',*,*,#175,.T.);
#215=ORIENTED_EDGE('',*,*,#176,.T.);
#216=ORIENTED_EDGE('',*,*,#175,.F.);
#217=ORIENTED_EDGE('',*,*,#176,.F.);
#218=ORIENTED_EDGE('',*,*,#177,.F.);
#219=ORIENTED_EDGE('',*,*,#178,.F.);
#220=ORIENTED_EDGE('',*,*,#179,.F.);
#221=ORIENTED_EDGE('',*,*,#180,.F.);
#222=ORIENTED_EDGE('',*,*,#181,.F.);
#223=ORIENTED_EDGE('',*,*,#182,.F.);
#224=ORIENTED_EDGE('',*,*,#183,.T.);
#225=ORIENTED_EDGE('',*,*,#184,.T.);
#226=ORIENTED_EDGE('',*,*,#183,.F.);
#227=ORIENTED_EDGE('',*,*,#185,.F.);
#228=ORIENTED_EDGE('',*,*,#186,.T.);
#229=ORIENTED_EDGE('',*,*,#187,.T.);
#230=ORIENTED_EDGE('',*,*,#186,.F.);
#231=ORIENTED_EDGE('',*,*,#188,.F.);
#232=ORIENTED_EDGE('',*,*,#189,.T.);
#233=ORIENTED_EDGE('',*,*,#180,.T.);
#234=ORIENTED_EDGE('',*,*,#189,.F.);
#235=ORIENTED_EDGE('',*,*,#190,.F.);
#236=ORIENTED_EDGE('',*,*,#191,.T.);
#237=ORIENTED_EDGE('',*,*,#192,.T.);
#238=ORIENTED_EDGE('',*,*,#191,.F.);
#239=ORIENTED_EDGE('',*,*,#193,.F.);
#240=ORIENTED_EDGE('',*,*,#194,.T.);
#241=ORIENTED_EDGE('',*,*,#195,.T.);
#242=ORIENTED_EDGE('',*,*,#194,.F.);
#243=ORIENTED_EDGE('',*,*,#196,.F.);
#244=ORIENTED_EDGE('',*,*,#197,.T.);
#245=ORIENTED_EDGE('',*,*,#179,.T.);
#246=ORIENTED_EDGE('',*,*,#197,.F.);
#247=ORIENTED_EDGE('',*,*,#198,.F.);
#248=ORIENTED_EDGE('',*,*,#199,.T.);
#249=ORIENTED_EDGE('',*,*,#177,.T.);
#250=ORIENTED_EDGE('',*,*,#199,.F.);
#251=ORIENTED_EDGE('',*,*,#200,.F.);
#252=ORIENTED_EDGE('',*,*,#201,.T.);
#253=ORIENTED_EDGE('',*,*,#178,.T.);
#254=ORIENTED_EDGE('',*,*,#201,.F.);
#255=ORIENTED_EDGE('',*,*,#202,.F.);
#256=ORIENTED_EDGE('',*,*,#203,.T.);
#257=ORIENTED_EDGE('',*,*,#204,.T.);
#258=ORIENTED_EDGE('',*,*,#203,.F.);
#259=ORIENTED_EDGE('',*,*,#205,.F.);
#260=ORIENTED_EDGE('',*,*,#206,.T.);
#261=ORIENTED_EDGE('',*,*,#207,.T.);
#262=ORIENTED_EDGE('',*,*,#206,.F.);
#263=ORIENTED_EDGE('',*,*,#208,.F.);
#264=ORIENTED_EDGE('',*,*,#209,.T.);
#265=ORIENTED_EDGE('',*,*,#181,.T.);
#266=ORIENTED_EDGE('',*,*,#209,.F.);
#267=ORIENTED_EDGE('',*,*,#210,.F.);
#268=ORIENTED_EDGE('',*,*,#211,.T.);
#269=ORIENTED_EDGE('',*,*,#212,.T.);
#270=ORIENTED_EDGE('',*,*,#211,.F.);
#271=ORIENTED_EDGE('',*,*,#210,.T.);
#272=ORIENTED_EDGE('',*,*,#208,.T.);
#273=ORIENTED_EDGE('',*,*,#205,.T.);
#274=ORIENTED_EDGE('',*,*,#202,.T.);
#275=ORIENTED_EDGE('',*,*,#200,.T.);
#276=ORIENTED_EDGE('',*,*,#198,.T.);
#277=ORIENTED_EDGE('',*,*,#196,.T.);
#278=ORIENTED_EDGE('',*,*,#193,.T.);
#279=ORIENTED_EDGE('',*,*,#190,.T.);
#280=ORIENTED_EDGE('',*,*,#188,.T.);
#281=ORIENTED_EDGE('',*,*,#185,.T.);
#282=ORIENTED_EDGE('',*,*,#182,.T.);
#283=ORIENTED_EDGE('',*,*,#212,.F.);
#284=ORIENTED_EDGE('',*,*,#174,.T.);
#285=ORIENTED_EDGE('',*,*,#207,.F.);
#286=ORIENTED_EDGE('',*,*,#204,.F.);
#287=ORIENTED_EDGE('',*,*,#195,.F.);
#288=ORIENTED_EDGE('',*,*,#192,.F.);
#289=ORIENTED_EDGE('',*,*,#187,.F.);
#290=ORIENTED_EDGE('',*,*,#184,.F.);
#291=CYLINDRICAL_SURFACE('',#334,18.);
#292=CYLINDRICAL_SURFACE('',#343,2.25);
#293=CYLINDRICAL_SURFACE('',#346,2.25);
#294=CYLINDRICAL_SURFACE('',#349,6.5);
#295=CYLINDRICAL_SURFACE('',#351,2.25);
#296=CYLINDRICAL_SURFACE('',#354,2.25);
#297=CYLINDRICAL_SURFACE('',#357,1.5);
#298=CYLINDRICAL_SURFACE('',#359,1.5);
#299=CYLINDRICAL_SURFACE('',#361,1.5);
#300=CYLINDRICAL_SURFACE('',#363,2.25);
#301=CYLINDRICAL_SURFACE('',#366,2.25);
#302=CYLINDRICAL_SURFACE('',#369,1.5);
#303=CYLINDRICAL_SURFACE('',#371,28.75);
#304=ADVANCED_FACE('',(#41),#291,.F.);
#305=ADVANCED_FACE('',(#42,#15,#16,#17,#18,#19),#38,.F.);
#306=ADVANCED_FACE('',(#43),#292,.F.);
#307=ADVANCED_FACE('',(#44),#293,.F.);
#308=ADVANCED_FACE('',(#45),#294,.F.);
#309=ADVANCED_FACE('',(#46),#295,.F.);
#310=ADVANCED_FACE('',(#47),#296,.F.);
#311=ADVANCED_FACE('',(#48),#297,.F.);
#312=ADVANCED_FACE('',(#49),#298,.F.);
#313=ADVANCED_FACE('',(#50),#299,.F.);
#314=ADVANCED_FACE('',(#51),#300,.F.);
#315=ADVANCED_FACE('',(#52),#301,.F.);
#316=ADVANCED_FACE('',(#53),#302,.F.);
#317=ADVANCED_FACE('',(#54),#303,.T.);
#318=ADVANCED_FACE('',(#55,#20,#21,#22,#23,#24,#25,#26,#27,#28,#29,#30),
#39,.T.);
#319=ADVANCED_FACE('',(#56,#31,#32,#33,#34,#35,#36,#37),#40,.F.);
#320=CLOSED_SHELL('',(#304,#305,#306,#307,#308,#309,#310,#311,#312,#313,
#314,#315,#316,#317,#318,#319));
#321=DERIVED_UNIT_ELEMENT(#323,1.);
#322=DERIVED_UNIT_ELEMENT(#562,-3.);
#323=(
MASS_UNIT()
NAMED_UNIT(*)
SI_UNIT(.KILO.,.GRAM.)
);
#324=DERIVED_UNIT((#321,#322));
#325=MEASURE_REPRESENTATION_ITEM('density measure',
POSITIVE_RATIO_MEASURE(7850.),#324);
#326=PROPERTY_DEFINITION_REPRESENTATION(#331,#328);
#327=PROPERTY_DEFINITION_REPRESENTATION(#332,#329);
#328=REPRESENTATION('material name',(#330),#559);
#329=REPRESENTATION('density',(#325),#559);
#330=DESCRIPTIVE_REPRESENTATION_ITEM('Acier','Acier');
#331=PROPERTY_DEFINITION('material property','material name',#569);
#332=PROPERTY_DEFINITION('material property','density of part',#569);
#333=AXIS2_PLACEMENT_3D('placement',#475,#376,#377);
#334=AXIS2_PLACEMENT_3D('',#476,#378,#379);
#335=AXIS2_PLACEMENT_3D('',#478,#380,#381);
#336=AXIS2_PLACEMENT_3D('',#481,#383,#384);
#337=AXIS2_PLACEMENT_3D('',#482,#385,#386);
#338=AXIS2_PLACEMENT_3D('',#484,#387,#388);
#339=AXIS2_PLACEMENT_3D('',#486,#389,#390);
#340=AXIS2_PLACEMENT_3D('',#488,#391,#392);
#341=AXIS2_PLACEMENT_3D('',#490,#393,#394);
#342=AXIS2_PLACEMENT_3D('',#492,#395,#396);
#343=AXIS2_PLACEMENT_3D('',#493,#397,#398);
#344=AXIS2_PLACEMENT_3D('',#495,#399,#400);
#345=AXIS2_PLACEMENT_3D('',#498,#402,#403);
#346=AXIS2_PLACEMENT_3D('',#499,#404,#405);
#347=AXIS2_PLACEMENT_3D('',#501,#406,#407);
#348=AXIS2_PLACEMENT_3D('',#504,#409,#410);
#349=AXIS2_PLACEMENT_3D('',#505,#411,#412);
#350=AXIS2_PLACEMENT_3D('',#507,#413,#414);
#351=AXIS2_PLACEMENT_3D('',#509,#416,#417);
#352=AXIS2_PLACEMENT_3D('',#511,#418,#419);
#353=AXIS2_PLACEMENT_3D('',#514,#421,#422);
#354=AXIS2_PLACEMENT_3D('',#515,#423,#424);
#355=AXIS2_PLACEMENT_3D('',#517,#425,#426);
#356=AXIS2_PLACEMENT_3D('',#520,#428,#429);
#357=AXIS2_PLACEMENT_3D('',#521,#430,#431);
#358=AXIS2_PLACEMENT_3D('',#523,#432,#433);
#359=AXIS2_PLACEMENT_3D('',#525,#435,#436);
#360=AXIS2_PLACEMENT_3D('',#527,#437,#438);
#361=AXIS2_PLACEMENT_3D('',#529,#440,#441);
#362=AXIS2_PLACEMENT_3D('',#531,#442,#443);
#363=AXIS2_PLACEMENT_3D('',#533,#445,#446);
#364=AXIS2_PLACEMENT_3D('',#535,#447,#448);
#365=AXIS2_PLACEMENT_3D('',#538,#450,#451);
#366=AXIS2_PLACEMENT_3D('',#539,#452,#453);
#367=AXIS2_PLACEMENT_3D('',#541,#454,#455);
#368=AXIS2_PLACEMENT_3D('',#544,#457,#458);
#369=AXIS2_PLACEMENT_3D('',#545,#459,#460);
#370=AXIS2_PLACEMENT_3D('',#547,#461,#462);
#371=AXIS2_PLACEMENT_3D('',#549,#464,#465);
#372=AXIS2_PLACEMENT_3D('',#551,#466,#467);
#373=AXIS2_PLACEMENT_3D('',#554,#469,#470);
#374=AXIS2_PLACEMENT_3D('',#555,#471,#472);
#375=AXIS2_PLACEMENT_3D('',#556,#473,#474);
#376=DIRECTION('axis',(0.,0.,1.));
#377=DIRECTION('refdir',(1.,0.,0.));
#378=DIRECTION('center_axis',(0.,1.,0.));
#379=DIRECTION('ref_axis',(1.,0.,0.));
#380=DIRECTION('center_axis',(0.,1.,0.));
#381=DIRECTION('ref_axis',(1.,0.,0.));
#382=DIRECTION('',(0.,1.,0.));
#383=DIRECTION('center_axis',(0.,1.,0.));
#384=DIRECTION('ref_axis',(1.,0.,0.));
#385=DIRECTION('center_axis',(0.,1.,0.));
#386=DIRECTION('ref_axis',(1.,0.,0.));
#387=DIRECTION('center_axis',(0.,-1.,0.));
#388=DIRECTION('ref_axis',(1.,0.,0.));
#389=DIRECTION('center_axis',(0.,-1.,0.));
#390=DIRECTION('ref_axis',(1.,0.,0.));
#391=DIRECTION('center_axis',(0.,-1.,0.));
#392=DIRECTION('ref_axis',(1.,0.,0.));
#393=DIRECTION('center_axis',(0.,-1.,0.));
#394=DIRECTION('ref_axis',(1.,0.,0.));
#395=DIRECTION('center_axis',(0.,-1.,0.));
#396=DIRECTION('ref_axis',(1.,0.,0.));
#397=DIRECTION('center_axis',(0.,1.,0.));
#398=DIRECTION('ref_axis',(1.,0.,0.));
#399=DIRECTION('center_axis',(0.,-1.,0.));
#400=DIRECTION('ref_axis',(1.,0.,0.));
#401=DIRECTION('',(0.,-1.,0.));
#402=DIRECTION('center_axis',(0.,-1.,0.));
#403=DIRECTION('ref_axis',(1.,0.,0.));
#404=DIRECTION('center_axis',(0.,1.,0.));
#405=DIRECTION('ref_axis',(1.,0.,0.));
#406=DIRECTION('center_axis',(0.,-1.,0.));
#407=DIRECTION('ref_axis',(1.,0.,0.));
#408=DIRECTION('',(0.,-1.,0.));
#409=DIRECTION('center_axis',(0.,-1.,0.));
#410=DIRECTION('ref_axis',(1.,0.,0.));
#411=DIRECTION('center_axis',(0.,1.,0.));
#412=DIRECTION('ref_axis',(1.,0.,0.));
#413=DIRECTION('center_axis',(0.,-1.,0.));
#414=DIRECTION('ref_axis',(1.,0.,0.));
#415=DIRECTION('',(0.,-1.,0.));
#416=DIRECTION('center_axis',(0.,1.,0.));
#417=DIRECTION('ref_axis',(1.,0.,0.));
#418=DIRECTION('center_axis',(0.,-1.,0.));
#419=DIRECTION('ref_axis',(1.,0.,0.));
#420=DIRECTION('',(0.,-1.,0.));
#421=DIRECTION('center_axis',(0.,-1.,0.));
#422=DIRECTION('ref_axis',(1.,0.,0.));
#423=DIRECTION('center_axis',(0.,1.,0.));
#424=DIRECTION('ref_axis',(1.,0.,0.));
#425=DIRECTION('center_axis',(0.,-1.,0.));
#426=DIRECTION('ref_axis',(1.,0.,0.));
#427=DIRECTION('',(0.,-1.,0.));
#428=DIRECTION('center_axis',(0.,-1.,0.));
#429=DIRECTION('ref_axis',(1.,0.,0.));
#430=DIRECTION('center_axis',(0.,1.,0.));
#431=DIRECTION('ref_axis',(1.,0.,0.));
#432=DIRECTION('center_axis',(0.,-1.,0.));
#433=DIRECTION('ref_axis',(1.,0.,0.));
#434=DIRECTION('',(0.,-1.,0.));
#435=DIRECTION('center_axis',(0.,1.,0.));
#436=DIRECTION('ref_axis',(1.,0.,0.));
#437=DIRECTION('center_axis',(0.,-1.,0.));
#438=DIRECTION('ref_axis',(1.,0.,0.));
#439=DIRECTION('',(0.,-1.,0.));
#440=DIRECTION('center_axis',(0.,1.,0.));
#441=DIRECTION('ref_axis',(1.,0.,0.));
#442=DIRECTION('center_axis',(0.,-1.,0.));
#443=DIRECTION('ref_axis',(1.,0.,0.));
#444=DIRECTION('',(0.,-1.,0.));
#445=DIRECTION('center_axis',(0.,1.,0.));
#446=DIRECTION('ref_axis',(1.,0.,0.));
#447=DIRECTION('center_axis',(0.,-1.,0.));
#448=DIRECTION('ref_axis',(1.,0.,0.));
#449=DIRECTION('',(0.,-1.,0.));
#450=DIRECTION('center_axis',(0.,-1.,0.));
#451=DIRECTION('ref_axis',(1.,0.,0.));
#452=DIRECTION('center_axis',(0.,1.,0.));
#453=DIRECTION('ref_axis',(1.,0.,0.));
#454=DIRECTION('center_axis',(0.,-1.,0.));
#455=DIRECTION('ref_axis',(1.,0.,0.));
#456=DIRECTION('',(0.,-1.,0.));
#457=DIRECTION('center_axis',(0.,-1.,0.));
#458=DIRECTION('ref_axis',(1.,0.,0.));
#459=DIRECTION('center_axis',(0.,1.,0.));
#460=DIRECTION('ref_axis',(1.,0.,0.));
#461=DIRECTION('center_axis',(0.,-1.,0.));
#462=DIRECTION('ref_axis',(1.,0.,0.));
#463=DIRECTION('',(0.,-1.,0.));
#464=DIRECTION('center_axis',(0.,1.,0.));
#465=DIRECTION('ref_axis',(1.,0.,0.));
#466=DIRECTION('center_axis',(0.,1.,0.));
#467=DIRECTION('ref_axis',(1.,0.,0.));
#468=DIRECTION('',(0.,-1.,0.));
#469=DIRECTION('center_axis',(0.,1.,0.));
#470=DIRECTION('ref_axis',(1.,0.,0.));
#471=DIRECTION('center_axis',(0.,1.,0.));
#472=DIRECTION('ref_axis',(1.,0.,0.));
#473=DIRECTION('center_axis',(0.,1.,0.));
#474=DIRECTION('ref_axis',(1.,0.,0.));
#475=CARTESIAN_POINT('',(0.,0.,0.));
#476=CARTESIAN_POINT('Origin',(0.,0.,0.));
#477=CARTESIAN_POINT('',(-18.,0.,2.20436423846524E-15));
#478=CARTESIAN_POINT('Origin',(0.,0.,0.));
#479=CARTESIAN_POINT('',(-18.,2.,2.22044604925031E-15));
#480=CARTESIAN_POINT('',(-18.,0.,2.20436423846524E-15));
#481=CARTESIAN_POINT('Origin',(0.,2.,0.));
#482=CARTESIAN_POINT('Origin',(0.,2.,0.));
#483=CARTESIAN_POINT('',(-11.222718241315,2.,9.72271824131502));
#484=CARTESIAN_POINT('Origin',(-9.72271824131504,2.,9.72271824131502));
#485=CARTESIAN_POINT('',(8.22271824131504,2.,-9.72271824131502));
#486=CARTESIAN_POINT('Origin',(9.72271824131504,2.,-9.72271824131502));
#487=CARTESIAN_POINT('',(8.22271824131502,2.,9.72271824131504));
#488=CARTESIAN_POINT('Origin',(9.72271824131502,2.,9.72271824131504));
#489=CARTESIAN_POINT('',(-6.5,2.,1.11022302462516E-15));
#490=CARTESIAN_POINT('Origin',(0.,2.,0.));
#491=CARTESIAN_POINT('',(-11.222718241315,2.,-9.72271824131504));
#492=CARTESIAN_POINT('Origin',(-9.72271824131502,2.,-9.72271824131504));
#493=CARTESIAN_POINT('Origin',(20.3515969889343,0.,11.75));
#494=CARTESIAN_POINT('',(18.1015969889343,5.,11.75));
#495=CARTESIAN_POINT('Origin',(20.3515969889343,5.,11.75));
#496=CARTESIAN_POINT('',(18.1015969889343,0.,11.75));
#497=CARTESIAN_POINT('',(18.1015969889343,0.,11.75));
#498=CARTESIAN_POINT('Origin',(20.3515969889343,0.,11.75));
#499=CARTESIAN_POINT('Origin',(2.72989622347881E-14,0.,-23.5));
#500=CARTESIAN_POINT('',(-2.24999999999997,5.,-23.5));
#501=CARTESIAN_POINT('Origin',(2.72989622347881E-14,5.,-23.5));
#502=CARTESIAN_POINT('',(-2.24999999999997,0.,-23.5));
#503=CARTESIAN_POINT('',(-2.24999999999997,0.,-23.5));
#504=CARTESIAN_POINT('Origin',(2.72989622347881E-14,0.,-23.5));
#505=CARTESIAN_POINT('Origin',(0.,0.,0.));
#506=CARTESIAN_POINT('',(-6.5,5.,1.11022302462516E-15));
#507=CARTESIAN_POINT('Origin',(0.,5.,0.));
#508=CARTESIAN_POINT('',(-6.5,0.,7.9602041944578E-16));
#509=CARTESIAN_POINT('Origin',(-20.3515969889343,0.,-11.75));
#510=CARTESIAN_POINT('',(-22.6015969889343,5.,-11.75));
#511=CARTESIAN_POINT('Origin',(-20.3515969889343,5.,-11.75));
#512=CARTESIAN_POINT('',(-22.6015969889343,0.,-11.75));
#513=CARTESIAN_POINT('',(-22.6015969889343,0.,-11.75));
#514=CARTESIAN_POINT('Origin',(-20.3515969889343,0.,-11.75));
#515=CARTESIAN_POINT('Origin',(-1.21206382270455E-14,0.,23.5));
#516=CARTESIAN_POINT('',(-2.25000000000001,5.,23.5));
#517=CARTESIAN_POINT('Origin',(-1.21206382270455E-14,5.,23.5));
#518=CARTESIAN_POINT('',(-2.25000000000001,0.,23.5));
#519=CARTESIAN_POINT('',(-2.25000000000001,0.,23.5));
#520=CARTESIAN_POINT('Origin',(-1.21206382270455E-14,0.,23.5));
#521=CARTESIAN_POINT('Origin',(9.72271824131502,0.,9.72271824131504));
#522=CARTESIAN_POINT('',(8.22271824131502,5.,9.72271824131504));
#523=CARTESIAN_POINT('Origin',(9.72271824131502,5.,9.72271824131504));
#524=CARTESIAN_POINT('',(8.22271824131502,0.,9.72271824131504));
#525=CARTESIAN_POINT('Origin',(-9.72271824131504,0.,9.72271824131502));
#526=CARTESIAN_POINT('',(-11.222718241315,5.,9.72271824131502));
#527=CARTESIAN_POINT('Origin',(-9.72271824131504,5.,9.72271824131502));
#528=CARTESIAN_POINT('',(-11.222718241315,0.,9.72271824131502));
#529=CARTESIAN_POINT('Origin',(9.72271824131504,0.,-9.72271824131502));
#530=CARTESIAN_POINT('',(8.22271824131504,5.,-9.72271824131502));
#531=CARTESIAN_POINT('Origin',(9.72271824131504,5.,-9.72271824131502));
#532=CARTESIAN_POINT('',(8.22271824131504,0.,-9.72271824131502));
#533=CARTESIAN_POINT('Origin',(20.3515969889343,0.,-11.75));
#534=CARTESIAN_POINT('',(18.1015969889343,5.,-11.75));
#535=CARTESIAN_POINT('Origin',(20.3515969889343,5.,-11.75));
#536=CARTESIAN_POINT('',(18.1015969889343,0.,-11.75));
#537=CARTESIAN_POINT('',(18.1015969889343,0.,-11.75));
#538=CARTESIAN_POINT('Origin',(20.3515969889343,0.,-11.75));
#539=CARTESIAN_POINT('Origin',(-20.3515969889343,0.,11.75));
#540=CARTESIAN_POINT('',(-22.6015969889343,5.,11.75));
#541=CARTESIAN_POINT('Origin',(-20.3515969889343,5.,11.75));
#542=CARTESIAN_POINT('',(-22.6015969889343,0.,11.75));
#543=CARTESIAN_POINT('',(-22.6015969889343,0.,11.75));
#544=CARTESIAN_POINT('Origin',(-20.3515969889343,0.,11.75));
#545=CARTESIAN_POINT('Origin',(-9.72271824131502,0.,-9.72271824131504));
#546=CARTESIAN_POINT('',(-11.222718241315,5.,-9.72271824131504));
#547=CARTESIAN_POINT('Origin',(-9.72271824131502,5.,-9.72271824131504));
#548=CARTESIAN_POINT('',(-11.222718241315,0.,-9.72271824131504));
#549=CARTESIAN_POINT('Origin',(0.,0.,0.));
#550=CARTESIAN_POINT('',(-28.75,5.,3.33066907387547E-15));
#551=CARTESIAN_POINT('Origin',(0.,5.,0.));
#552=CARTESIAN_POINT('',(-28.75,0.,3.52085954754864E-15));
#553=CARTESIAN_POINT('',(-28.75,0.,3.52085954754864E-15));
#554=CARTESIAN_POINT('Origin',(0.,0.,0.));
#555=CARTESIAN_POINT('Origin',(0.,5.,0.));
#556=CARTESIAN_POINT('Origin',(0.,0.,0.));
#557=UNCERTAINTY_MEASURE_WITH_UNIT(LENGTH_MEASURE(0.01),#561,
'DISTANCE_ACCURACY_VALUE',
'Maximum model space distance between geometric entities at asserted c
onnectivities');
#558=UNCERTAINTY_MEASURE_WITH_UNIT(LENGTH_MEASURE(0.01),#561,
'DISTANCE_ACCURACY_VALUE',
'Maximum model space distance between geometric entities at asserted c
onnectivities');
#559=(
GEOMETRIC_REPRESENTATION_CONTEXT(3)
GLOBAL_UNCERTAINTY_ASSIGNED_CONTEXT((#557))
GLOBAL_UNIT_ASSIGNED_CONTEXT((#561,#563,#564))
REPRESENTATION_CONTEXT('','3D')
);
#560=(
GEOMETRIC_REPRESENTATION_CONTEXT(3)
GLOBAL_UNCERTAINTY_ASSIGNED_CONTEXT((#558))
GLOBAL_UNIT_ASSIGNED_CONTEXT((#561,#563,#564))
REPRESENTATION_CONTEXT('','3D')
);
#561=(
LENGTH_UNIT()
NAMED_UNIT(*)
SI_UNIT(.MILLI.,.METRE.)
);
#562=(
LENGTH_UNIT()
NAMED_UNIT(*)
SI_UNIT($,.METRE.)
);
#563=(
NAMED_UNIT(*)
PLANE_ANGLE_UNIT()
SI_UNIT($,.RADIAN.)
);
#564=(
NAMED_UNIT(*)
SI_UNIT($,.STERADIAN.)
SOLID_ANGLE_UNIT()
);
#565=SHAPE_DEFINITION_REPRESENTATION(#566,#567);
#566=PRODUCT_DEFINITION_SHAPE('',$,#569);
#567=SHAPE_REPRESENTATION('',(#333),#559);
#568=PRODUCT_DEFINITION_CONTEXT('part definition',#573,'design');
#569=PRODUCT_DEFINITION('base radiateur moteur rc',
'base radiateur moteur rc v1',#570,#568);
#570=PRODUCT_DEFINITION_FORMATION('',$,#575);
#571=PRODUCT_RELATED_PRODUCT_CATEGORY('base radiateur moteur rc v1',
'base radiateur moteur rc v1',(#575));
#572=APPLICATION_PROTOCOL_DEFINITION('international standard',
'automotive_design',2009,#573);
#573=APPLICATION_CONTEXT(
'Core Data for Automotive Mechanical Design Process');
#574=PRODUCT_CONTEXT('part definition',#573,'mechanical');
#575=PRODUCT('base radiateur moteur rc','base radiateur moteur rc v1',$,
(#574));
#576=PRESENTATION_STYLE_ASSIGNMENT((#577));
#577=SURFACE_STYLE_USAGE(.BOTH.,#578);
#578=SURFACE_SIDE_STYLE('',(#579));
#579=SURFACE_STYLE_FILL_AREA(#580);
#580=FILL_AREA_STYLE('Acier - Satin\X\E9',(#581));
#581=FILL_AREA_STYLE_COLOUR('Acier - Satin\X\E9',#582);
#582=COLOUR_RGB('Acier - Satin\X\E9',0.627450980392157,0.627450980392157,
0.627450980392157);
ENDSEC;
END-ISO-10303-21;
