ISO-10303-21;
HEADER;
FILE_DESCRIPTION(('STEP AP203'),'1');
FILE_NAME('mdc13501 (1).stp','2023-01-10T07:38:26',(' '),(' '),'Spatial InterOp 3D',' ',' ');
FILE_SCHEMA(('CONFIG_CONTROL_DESIGN'));
ENDSEC;
DATA;
#1=DESIGN_CONTEXT('',#33,'design');
#2=APPLICATION_PROTOCOL_DEFINITION('INTERNATIONAL STANDARD','config_control_design',1994,#33);
#3=PRODUCT_CATEGORY_RELATIONSHIP('NONE','NONE',#34,#35);
#4=DATE_AND_TIME(#36,#37);
#5=DATE_TIME_ROLE('creation_date');
#6=DATE_TIME_ROLE('classification_date');
#7=PERSON_AND_ORGANIZATION_ROLE('creator');
#8=PERSON_AND_ORGANIZATION_ROLE('design_supplier');
#9=PERSON_AND_ORGANIZATION_ROLE('classification_officer');
#10=PERSON_AND_ORGANIZATION_ROLE('design_owner');
#11=APPROVAL_PERSON_ORGANIZATION(#38,#39,#40);
#12=APPROVAL_DATE_TIME(#4,#39);
#13=CC_DESIGN_APPROVAL(#39,(#41,#42,#43));
#14=CC_DESIGN_DATE_AND_TIME_ASSIGNMENT(#4,#5,(#43));
#15=CC_DESIGN_DATE_AND_TIME_ASSIGNMENT(#4,#6,(#41));
#16=CC_DESIGN_PERSON_AND_ORGANIZATION_ASSIGNMENT(#38,#10,(#44));
#17=CC_DESIGN_PERSON_AND_ORGANIZATION_ASSIGNMENT(#38,#7,(#43));
#18=CC_DESIGN_PERSON_AND_ORGANIZATION_ASSIGNMENT(#38,#7,(#42));
#19=CC_DESIGN_PERSON_AND_ORGANIZATION_ASSIGNMENT(#38,#8,(#42));
#20=CC_DESIGN_SECURITY_CLASSIFICATION(#41,(#42));
#21=CC_DESIGN_PERSON_AND_ORGANIZATION_ASSIGNMENT(#38,#9,(#41));
#22=SHAPE_DEFINITION_REPRESENTATION(#45,#46);
#23= (GEOMETRIC_REPRESENTATION_CONTEXT(3)GLOBAL_UNCERTAINTY_ASSIGNED_CONTEXT((#49))GLOBAL_UNIT_ASSIGNED_CONTEXT((#51,#52,#53))REPRESENTATION_CONTEXT('NONE','WORKSPACE'));
#24=PROPERTY_DEFINITION_REPRESENTATION(#55,#56);
#25=GENERAL_PROPERTY_ASSOCIATION('','',#57,#55);
#26=PROPERTY_DEFINITION_REPRESENTATION(#58,#59);
#27=GENERAL_PROPERTY_ASSOCIATION('','',#60,#58);
#28=PROPERTY_DEFINITION_REPRESENTATION(#61,#62);
#29=GENERAL_PROPERTY_ASSOCIATION('','',#63,#61);
#33=APPLICATION_CONTEXT('CONFIGURATION CONTROLLED 3D DESIGNS OF MECHANICAL PARTS AND ASSEMBLIES');
#34=PRODUCT_CATEGORY('part','NONE');
#35=PRODUCT_RELATED_PRODUCT_CATEGORY('detail',' ',(#44));
#36=CALENDAR_DATE(2023,10,0);
#37=LOCAL_TIME(8,38,26.0,#64);
#38=PERSON_AND_ORGANIZATION(#65,#66);
#39=APPROVAL(#67,'SOLID MODEL');
#40=APPROVAL_ROLE('APPROVED');
#41=SECURITY_CLASSIFICATION('','',#68);
#42=PRODUCT_DEFINITION_FORMATION_WITH_SPECIFIED_SOURCE('A','NONE',#44,.NOT_KNOWN.);
#43=PRODUCT_DEFINITION('','NONE',#42,#1);
#44=PRODUCT('mdc13501','','MD_C13_501',(#69));
#45=PRODUCT_DEFINITION_SHAPE('NONE','NONE',#43);
#46=ADVANCED_BREP_SHAPE_REPRESENTATION('1',(#70,#71),#23);
#49=UNCERTAINTY_MEASURE_WITH_UNIT(LENGTH_MEASURE(0.001),#51,'','');
#51= (CONVERSION_BASED_UNIT('MILLIMETRE',#74)LENGTH_UNIT()NAMED_UNIT(#77));
#52= (NAMED_UNIT(#79)PLANE_ANGLE_UNIT()SI_UNIT($,.RADIAN.));
#53= (NAMED_UNIT(#79)SOLID_ANGLE_UNIT()SI_UNIT($,.STERADIAN.));
#55=PROPERTY_DEFINITION('PdmObjectId','',#43);
#56=REPRESENTATION('',(#85),#23);
#57=GENERAL_PROPERTY('','19_0004d287-adf7-436f-a28c-8c371037fead&2_2044_0_0','');
#58=PROPERTY_DEFINITION('CreationDate','',#43);
#59=REPRESENTATION('',(#86),#23);
#60=GENERAL_PROPERTY('','10/01/2023 07:37:30','');
#61=PROPERTY_DEFINITION('Minor Revision','',#43);
#62=REPRESENTATION('',(#87),#23);
#63=GENERAL_PROPERTY('','0','');
#64=COORDINATED_UNIVERSAL_TIME_OFFSET(1,0,.AHEAD.);
#65=PERSON('','UNSPECIFIED',$,$,$,$);
#66=ORGANIZATION('UNSPECIFIED','UNSPECIFIED','UNSPECIFIED');
#67=APPROVAL_STATUS('approved');
#68=SECURITY_CLASSIFICATION_LEVEL('unclassified');
#69=MECHANICAL_CONTEXT('',#33,'mechanical');
#70=MANIFOLD_SOLID_BREP('1',#88);
#71=AXIS2_PLACEMENT_3D('',#89,#90,#91);
#74=LENGTH_MEASURE_WITH_UNIT(LENGTH_MEASURE(1.0),#92);
#77=DIMENSIONAL_EXPONENTS(1.0,0.0,0.0,0.0,0.0,0.0,0.0);
#79=DIMENSIONAL_EXPONENTS(0.0,0.0,0.0,0.0,0.0,0.0,0.0);
#85=DESCRIPTIVE_REPRESENTATION_ITEM('','19_0004d287-adf7-436f-a28c-8c371037fead&2_2044_0_0');
#86=DESCRIPTIVE_REPRESENTATION_ITEM('','10/01/2023 07:37:30');
#87=DESCRIPTIVE_REPRESENTATION_ITEM('','0');
#88=CLOSED_SHELL('',(#93,#94,#95,#96,#97,#98,#99,#100,#101,#102,#103,#104,#105,#106,#107,#108,#109,#110));
#89=CARTESIAN_POINT('',(0.0,0.0,0.0));
#90=DIRECTION('',(0.0,0.0,1.0));
#91=DIRECTION('',(1.0,0.0,0.0));
#92= (NAMED_UNIT(#77)LENGTH_UNIT()SI_UNIT(.MILLI.,.METRE.));
#93=ADVANCED_FACE('',(#112),#113,.F.);
#94=ADVANCED_FACE('',(#114,#115),#116,.F.);
#95=ADVANCED_FACE('',(#117),#118,.F.);
#96=ADVANCED_FACE('',(#119),#120,.T.);
#97=ADVANCED_FACE('',(#121,#122),#123,.T.);
#98=ADVANCED_FACE('',(#124),#125,.T.);
#99=ADVANCED_FACE('',(#126,#127),#128,.T.);
#100=ADVANCED_FACE('',(#129,#130),#131,.F.);
#101=ADVANCED_FACE('',(#132,#133),#134,.T.);
#102=ADVANCED_FACE('',(#135,#136),#137,.T.);
#103=ADVANCED_FACE('',(#138),#139,.F.);
#104=ADVANCED_FACE('',(#140),#141,.F.);
#105=ADVANCED_FACE('',(#142),#143,.F.);
#106=ADVANCED_FACE('',(#144),#145,.F.);
#107=ADVANCED_FACE('',(#146),#147,.F.);
#108=ADVANCED_FACE('',(#148),#149,.F.);
#109=ADVANCED_FACE('',(#150,#151),#152,.F.);
#110=ADVANCED_FACE('',(#153,#154),#155,.F.);
#112=FACE_OUTER_BOUND('',#156,.T.);
#113=PLANE('',#157);
#114=FACE_OUTER_BOUND('',#158,.T.);
#115=FACE_OUTER_BOUND('',#159,.T.);
#116=CYLINDRICAL_SURFACE('',#160,5.5);
#117=FACE_OUTER_BOUND('',#161,.T.);
#118=PLANE('',#162);
#119=FACE_OUTER_BOUND('',#163,.T.);
#120=PLANE('',#164);
#121=FACE_OUTER_BOUND('',#165,.T.);
#122=FACE_OUTER_BOUND('',#166,.T.);
#123=CYLINDRICAL_SURFACE('',#167,7.95);
#124=FACE_OUTER_BOUND('',#168,.T.);
#125=PLANE('',#169);
#126=FACE_OUTER_BOUND('',#170,.T.);
#127=FACE_OUTER_BOUND('',#171,.T.);
#128=CYLINDRICAL_SURFACE('',#172,7.95);
#129=FACE_OUTER_BOUND('',#173,.T.);
#130=FACE_BOUND('',#174,.T.);
#131=PLANE('',#175);
#132=FACE_OUTER_BOUND('',#176,.T.);
#133=FACE_OUTER_BOUND('',#177,.T.);
#134=CYLINDRICAL_SURFACE('',#178,7.0);
#135=FACE_OUTER_BOUND('',#179,.T.);
#136=FACE_BOUND('',#180,.T.);
#137=PLANE('',#181);
#138=FACE_OUTER_BOUND('',#182,.T.);
#139=PLANE('',#183);
#140=FACE_OUTER_BOUND('',#184,.T.);
#141=PLANE('',#185);
#142=FACE_OUTER_BOUND('',#186,.T.);
#143=PLANE('',#187);
#144=FACE_OUTER_BOUND('',#188,.T.);
#145=PLANE('',#189);
#146=FACE_OUTER_BOUND('',#190,.T.);
#147=PLANE('',#191);
#148=FACE_OUTER_BOUND('',#192,.T.);
#149=PLANE('',#193);
#150=FACE_OUTER_BOUND('',#194,.T.);
#151=FACE_BOUND('',#195,.T.);
#152=PLANE('',#196);
#153=FACE_BOUND('',#197,.T.);
#154=FACE_OUTER_BOUND('',#198,.T.);
#155=CONICAL_SURFACE('',#199,5.764490471004,0.1745329251994);
#156=EDGE_LOOP('',(#200,#201,#202,#203,#204,#205,#206));
#157=AXIS2_PLACEMENT_3D('',#207,#208,#209);
#158=EDGE_LOOP('',(#210,#211,#212,#213,#214,#215,#216,#217,#218,#219));
#159=EDGE_LOOP('',(#220));
#160=AXIS2_PLACEMENT_3D('',#221,#222,#223);
#161=EDGE_LOOP('',(#224,#225,#226,#227,#228,#229,#230));
#162=AXIS2_PLACEMENT_3D('',#231,#232,#233);
#163=EDGE_LOOP('',(#234,#235));
#164=AXIS2_PLACEMENT_3D('',#236,#237,#238);
#165=EDGE_LOOP('',(#239));
#166=EDGE_LOOP('',(#240,#241,#242,#243,#244,#245,#246,#247,#248,#249,#250,#251));
#167=AXIS2_PLACEMENT_3D('',#252,#253,#254);
#168=EDGE_LOOP('',(#255,#256));
#169=AXIS2_PLACEMENT_3D('',#257,#258,#259);
#170=EDGE_LOOP('',(#260));
#171=EDGE_LOOP('',(#261));
#172=AXIS2_PLACEMENT_3D('',#262,#263,#264);
#173=EDGE_LOOP('',(#265));
#174=EDGE_LOOP('',(#266));
#175=AXIS2_PLACEMENT_3D('',#267,#268,#269);
#176=EDGE_LOOP('',(#270));
#177=EDGE_LOOP('',(#271));
#178=AXIS2_PLACEMENT_3D('',#272,#273,#274);
#179=EDGE_LOOP('',(#275));
#180=EDGE_LOOP('',(#276));
#181=AXIS2_PLACEMENT_3D('',#277,#278,#279);
#182=EDGE_LOOP('',(#280,#281,#282,#283));
#183=AXIS2_PLACEMENT_3D('',#284,#285,#286);
#184=EDGE_LOOP('',(#287,#288,#289,#290));
#185=AXIS2_PLACEMENT_3D('',#291,#292,#293);
#186=EDGE_LOOP('',(#294,#295,#296,#297));
#187=AXIS2_PLACEMENT_3D('',#298,#299,#300);
#188=EDGE_LOOP('',(#301,#302,#303,#304));
#189=AXIS2_PLACEMENT_3D('',#305,#306,#307);
#190=EDGE_LOOP('',(#308,#309,#310,#311));
#191=AXIS2_PLACEMENT_3D('',#312,#313,#314);
#192=EDGE_LOOP('',(#315,#316,#317,#318));
#193=AXIS2_PLACEMENT_3D('',#319,#320,#321);
#194=EDGE_LOOP('',(#322));
#195=EDGE_LOOP('',(#323));
#196=AXIS2_PLACEMENT_3D('',#324,#325,#326);
#197=EDGE_LOOP('',(#327));
#198=EDGE_LOOP('',(#328));
#199=AXIS2_PLACEMENT_3D('',#329,#330,#331);
#200=ORIENTED_EDGE('',*,*,#332,.T.);
#201=ORIENTED_EDGE('',*,*,#333,.T.);
#202=ORIENTED_EDGE('',*,*,#334,.T.);
#203=ORIENTED_EDGE('',*,*,#335,.F.);
#204=ORIENTED_EDGE('',*,*,#336,.T.);
#205=ORIENTED_EDGE('',*,*,#337,.T.);
#206=ORIENTED_EDGE('',*,*,#338,.T.);
#207=CARTESIAN_POINT('',(-5.1,-34.0,-9.0));
#208=DIRECTION('',(-0.939692620785897,0.342020143325699,0.0));
#209=DIRECTION('',(0.0,0.0,1.0));
#210=ORIENTED_EDGE('',*,*,#339,.F.);
#211=ORIENTED_EDGE('',*,*,#340,.F.);
#212=ORIENTED_EDGE('',*,*,#341,.T.);
#213=ORIENTED_EDGE('',*,*,#342,.F.);
#214=ORIENTED_EDGE('',*,*,#343,.F.);
#215=ORIENTED_EDGE('',*,*,#332,.F.);
#216=ORIENTED_EDGE('',*,*,#338,.F.);
#217=ORIENTED_EDGE('',*,*,#344,.T.);
#218=ORIENTED_EDGE('',*,*,#345,.F.);
#219=ORIENTED_EDGE('',*,*,#346,.F.);
#220=ORIENTED_EDGE('',*,*,#347,.F.);
#221=CARTESIAN_POINT('',(0.0,0.0,0.0));
#222=DIRECTION('',(-0.0,1.0,0.0));
#223=DIRECTION('',(1.0,0.0,0.0));
#224=ORIENTED_EDGE('',*,*,#348,.F.);
#225=ORIENTED_EDGE('',*,*,#349,.T.);
#226=ORIENTED_EDGE('',*,*,#350,.T.);
#227=ORIENTED_EDGE('',*,*,#351,.T.);
#228=ORIENTED_EDGE('',*,*,#352,.F.);
#229=ORIENTED_EDGE('',*,*,#340,.T.);
#230=ORIENTED_EDGE('',*,*,#339,.T.);
#231=CARTESIAN_POINT('',(7.283821405597,-40.0,-9.0));
#232=DIRECTION('',(0.939692620785897,0.342020143325699,0.0));
#233=DIRECTION('',(0.0,0.0,-1.0));
#234=ORIENTED_EDGE('',*,*,#353,.T.);
#235=ORIENTED_EDGE('',*,*,#335,.T.);
#236=CARTESIAN_POINT('',(0.0,-40.0,0.0));
#237=DIRECTION('',(0.0,-1.0,0.0));
#238=DIRECTION('',(0.0,0.0,-1.0));
#239=ORIENTED_EDGE('',*,*,#354,.T.);
#240=ORIENTED_EDGE('',*,*,#336,.F.);
#241=ORIENTED_EDGE('',*,*,#353,.F.);
#242=ORIENTED_EDGE('',*,*,#334,.F.);
#243=ORIENTED_EDGE('',*,*,#355,.T.);
#244=ORIENTED_EDGE('',*,*,#356,.F.);
#245=ORIENTED_EDGE('',*,*,#357,.F.);
#246=ORIENTED_EDGE('',*,*,#351,.F.);
#247=ORIENTED_EDGE('',*,*,#358,.T.);
#248=ORIENTED_EDGE('',*,*,#349,.F.);
#249=ORIENTED_EDGE('',*,*,#359,.T.);
#250=ORIENTED_EDGE('',*,*,#360,.F.);
#251=ORIENTED_EDGE('',*,*,#361,.F.);
#252=CARTESIAN_POINT('',(0.0,2.0,0.0));
#253=DIRECTION('',(0.0,-1.0,0.0));
#254=DIRECTION('',(-1.0,0.0,0.0));
#255=ORIENTED_EDGE('',*,*,#350,.F.);
#256=ORIENTED_EDGE('',*,*,#358,.F.);
#257=CARTESIAN_POINT('',(0.0,-40.0,0.0));
#258=DIRECTION('',(0.0,-1.0,0.0));
#259=DIRECTION('',(0.0,0.0,-1.0));
#260=ORIENTED_EDGE('',*,*,#362,.T.);
#261=ORIENTED_EDGE('',*,*,#363,.F.);
#262=CARTESIAN_POINT('',(0.0,2.0,0.0));
#263=DIRECTION('',(0.0,-1.0,0.0));
#264=DIRECTION('',(-1.0,0.0,0.0));
#265=ORIENTED_EDGE('',*,*,#354,.F.);
#266=ORIENTED_EDGE('',*,*,#364,.F.);
#267=CARTESIAN_POINT('',(0.0,-12.0,-9.0));
#268=DIRECTION('',(0.0,-1.0,0.0));
#269=DIRECTION('',(0.0,0.0,-1.0));
#270=ORIENTED_EDGE('',*,*,#365,.F.);
#271=ORIENTED_EDGE('',*,*,#364,.T.);
#272=CARTESIAN_POINT('',(0.0,-12.0,0.0));
#273=DIRECTION('',(0.0,-1.0,0.0));
#274=DIRECTION('',(1.0,0.0,0.0));
#275=ORIENTED_EDGE('',*,*,#363,.T.);
#276=ORIENTED_EDGE('',*,*,#365,.T.);
#277=CARTESIAN_POINT('',(0.0,-7.0,-9.0));
#278=DIRECTION('',(0.0,-1.0,0.0));
#279=DIRECTION('',(0.0,0.0,-1.0));
#280=ORIENTED_EDGE('',*,*,#366,.F.);
#281=ORIENTED_EDGE('',*,*,#360,.T.);
#282=ORIENTED_EDGE('',*,*,#367,.T.);
#283=ORIENTED_EDGE('',*,*,#345,.T.);
#284=CARTESIAN_POINT('',(5.1,-15.0,-9.0));
#285=DIRECTION('',(-0.0,1.0,0.0));
#286=DIRECTION('',(1.0,0.0,0.0));
#287=ORIENTED_EDGE('',*,*,#367,.F.);
#288=ORIENTED_EDGE('',*,*,#359,.F.);
#289=ORIENTED_EDGE('',*,*,#348,.T.);
#290=ORIENTED_EDGE('',*,*,#346,.T.);
#291=CARTESIAN_POINT('',(5.1,-34.0,-9.0));
#292=DIRECTION('',(1.0,0.0,0.0));
#293=DIRECTION('',(0.0,1.0,0.0));
#294=ORIENTED_EDGE('',*,*,#352,.T.);
#295=ORIENTED_EDGE('',*,*,#357,.T.);
#296=ORIENTED_EDGE('',*,*,#368,.F.);
#297=ORIENTED_EDGE('',*,*,#341,.F.);
#298=CARTESIAN_POINT('',(5.1,-34.0,-9.0));
#299=DIRECTION('',(1.0,0.0,0.0));
#300=DIRECTION('',(0.0,1.0,0.0));
#301=ORIENTED_EDGE('',*,*,#368,.T.);
#302=ORIENTED_EDGE('',*,*,#356,.T.);
#303=ORIENTED_EDGE('',*,*,#369,.F.);
#304=ORIENTED_EDGE('',*,*,#342,.T.);
#305=CARTESIAN_POINT('',(5.1,-15.0,-9.0));
#306=DIRECTION('',(-0.0,1.0,0.0));
#307=DIRECTION('',(1.0,0.0,0.0));
#308=ORIENTED_EDGE('',*,*,#369,.T.);
#309=ORIENTED_EDGE('',*,*,#355,.F.);
#310=ORIENTED_EDGE('',*,*,#333,.F.);
#311=ORIENTED_EDGE('',*,*,#343,.T.);
#312=CARTESIAN_POINT('',(-5.1,-15.0,-9.0));
#313=DIRECTION('',(-1.0,0.0,0.0));
#314=DIRECTION('',(0.0,0.0,1.0));
#315=ORIENTED_EDGE('',*,*,#337,.F.);
#316=ORIENTED_EDGE('',*,*,#361,.T.);
#317=ORIENTED_EDGE('',*,*,#366,.T.);
#318=ORIENTED_EDGE('',*,*,#344,.F.);
#319=CARTESIAN_POINT('',(-5.1,-15.0,-9.0));
#320=DIRECTION('',(-1.0,0.0,0.0));
#321=DIRECTION('',(0.0,0.0,1.0));
#322=ORIENTED_EDGE('',*,*,#362,.F.);
#323=ORIENTED_EDGE('',*,*,#370,.T.);
#324=CARTESIAN_POINT('',(0.0,0.0,0.0));
#325=DIRECTION('',(0.0,-1.0,0.0));
#326=DIRECTION('',(0.0,0.0,-1.0));
#327=ORIENTED_EDGE('',*,*,#347,.T.);
#328=ORIENTED_EDGE('',*,*,#370,.F.);
#329=CARTESIAN_POINT('',(0.0,-1.500000000335,0.0));
#330=DIRECTION('',(0.0,1.0,0.0));
#331=DIRECTION('',(0.0,0.0,-1.0));
#332=EDGE_CURVE('',#371,#372,#373,.T.);
#333=EDGE_CURVE('',#372,#374,#375,.T.);
#334=EDGE_CURVE('',#374,#376,#377,.T.);
#335=EDGE_CURVE('',#378,#376,#379,.T.);
#336=EDGE_CURVE('',#378,#380,#381,.T.);
#337=EDGE_CURVE('',#380,#382,#383,.T.);
#338=EDGE_CURVE('',#382,#371,#384,.T.);
#339=EDGE_CURVE('',#385,#386,#387,.T.);
#340=EDGE_CURVE('',#388,#385,#389,.T.);
#341=EDGE_CURVE('',#388,#390,#391,.T.);
#342=EDGE_CURVE('',#392,#390,#393,.T.);
#343=EDGE_CURVE('',#372,#392,#394,.T.);
#344=EDGE_CURVE('',#382,#395,#396,.T.);
#345=EDGE_CURVE('',#397,#395,#398,.T.);
#346=EDGE_CURVE('',#386,#397,#399,.T.);
#347=EDGE_CURVE('',#400,#400,#401,.T.);
#348=EDGE_CURVE('',#402,#386,#403,.T.);
#349=EDGE_CURVE('',#402,#404,#405,.T.);
#350=EDGE_CURVE('',#404,#406,#407,.T.);
#351=EDGE_CURVE('',#406,#408,#409,.T.);
#352=EDGE_CURVE('',#388,#408,#410,.T.);
#353=EDGE_CURVE('',#376,#378,#411,.T.);
#354=EDGE_CURVE('',#412,#412,#413,.T.);
#355=EDGE_CURVE('',#374,#414,#415,.T.);
#356=EDGE_CURVE('',#416,#414,#417,.T.);
#357=EDGE_CURVE('',#408,#416,#418,.T.);
#358=EDGE_CURVE('',#406,#404,#419,.T.);
#359=EDGE_CURVE('',#402,#420,#421,.T.);
#360=EDGE_CURVE('',#422,#420,#423,.T.);
#361=EDGE_CURVE('',#380,#422,#424,.T.);
#362=EDGE_CURVE('',#425,#425,#426,.T.);
#363=EDGE_CURVE('',#427,#427,#428,.T.);
#364=EDGE_CURVE('',#429,#429,#430,.T.);
#365=EDGE_CURVE('',#431,#431,#432,.T.);
#366=EDGE_CURVE('',#422,#395,#433,.T.);
#367=EDGE_CURVE('',#420,#397,#434,.T.);
#368=EDGE_CURVE('',#390,#416,#435,.T.);
#369=EDGE_CURVE('',#392,#414,#436,.T.);
#370=EDGE_CURVE('',#437,#437,#438,.T.);
#371=VERTEX_POINT('',#439);
#372=VERTEX_POINT('',#440);
#373=B_SPLINE_CURVE_WITH_KNOTS('',2,(#441,#442,#443,#444,#445),.UNSPECIFIED.,.F.,.F.,(3,2,3),(0.0,0.5,1.0),.UNSPECIFIED.);
#374=VERTEX_POINT('',#446);
#375=LINE('',#447,#448);
#376=VERTEX_POINT('',#449);
#377=B_SPLINE_CURVE_WITH_KNOTS('',2,(#450,#451,#452,#453,#454),.UNSPECIFIED.,.F.,.F.,(3,2,3),(0.0,0.5,1.0),.UNSPECIFIED.);
#378=VERTEX_POINT('',#455);
#379=LINE('',#456,#457);
#380=VERTEX_POINT('',#458);
#381=B_SPLINE_CURVE_WITH_KNOTS('',2,(#459,#460,#461,#462,#463),.UNSPECIFIED.,.F.,.F.,(3,2,3),(0.0,0.5,1.0),.UNSPECIFIED.);
#382=VERTEX_POINT('',#464);
#383=LINE('',#465,#466);
#384=B_SPLINE_CURVE_WITH_KNOTS('',2,(#467,#468,#469,#470,#471),.UNSPECIFIED.,.F.,.F.,(3,2,3),(0.0,0.5,1.0),.UNSPECIFIED.);
#385=VERTEX_POINT('',#472);
#386=VERTEX_POINT('',#473);
#387=B_SPLINE_CURVE_WITH_KNOTS('',2,(#474,#475,#476,#477,#478),.UNSPECIFIED.,.F.,.F.,(3,2,3),(0.0,0.5,1.0),.UNSPECIFIED.);
#388=VERTEX_POINT('',#479);
#389=B_SPLINE_CURVE_WITH_KNOTS('',2,(#480,#481,#482,#483,#484),.UNSPECIFIED.,.F.,.F.,(3,2,3),(0.0,0.5,1.0),.UNSPECIFIED.);
#390=VERTEX_POINT('',#485);
#391=LINE('',#486,#487);
#392=VERTEX_POINT('',#488);
#393=CIRCLE('',#489,5.5);
#394=LINE('',#490,#491);
#395=VERTEX_POINT('',#492);
#396=LINE('',#493,#494);
#397=VERTEX_POINT('',#495);
#398=CIRCLE('',#496,5.5);
#399=LINE('',#497,#498);
#400=VERTEX_POINT('',#499);
#401=CIRCLE('',#500,5.5);
#402=VERTEX_POINT('',#501);
#403=LINE('',#502,#503);
#404=VERTEX_POINT('',#504);
#405=B_SPLINE_CURVE_WITH_KNOTS('',2,(#505,#506,#507,#508,#509),.UNSPECIFIED.,.F.,.F.,(3,2,3),(0.0,0.5,1.0),.UNSPECIFIED.);
#406=VERTEX_POINT('',#510);
#407=LINE('',#511,#512);
#408=VERTEX_POINT('',#513);
#409=B_SPLINE_CURVE_WITH_KNOTS('',2,(#514,#515,#516,#517,#518),.UNSPECIFIED.,.F.,.F.,(3,2,3),(0.0,0.5,1.0),.UNSPECIFIED.);
#410=LINE('',#519,#520);
#411=CIRCLE('',#521,7.95);
#412=VERTEX_POINT('',#522);
#413=CIRCLE('',#523,7.95);
#414=VERTEX_POINT('',#524);
#415=LINE('',#525,#526);
#416=VERTEX_POINT('',#527);
#417=CIRCLE('',#528,7.95);
#418=LINE('',#529,#530);
#419=CIRCLE('',#531,7.95);
#420=VERTEX_POINT('',#532);
#421=LINE('',#533,#534);
#422=VERTEX_POINT('',#535);
#423=CIRCLE('',#536,7.95);
#424=LINE('',#537,#538);
#425=VERTEX_POINT('',#539);
#426=CIRCLE('',#540,7.95);
#427=VERTEX_POINT('',#541);
#428=CIRCLE('',#542,7.95);
#429=VERTEX_POINT('',#543);
#430=CIRCLE('',#544,7.0);
#431=VERTEX_POINT('',#545);
#432=CIRCLE('',#546,7.0);
#433=LINE('',#547,#548);
#434=LINE('',#549,#550);
#435=LINE('',#551,#552);
#436=LINE('',#553,#554);
#437=VERTEX_POINT('',#555);
#438=CIRCLE('',#556,6.028980942125);
#439=CARTESIAN_POINT('',(-5.5,-35.09899096778,0.0));
#440=CARTESIAN_POINT('',(-5.1,-34.0,2.059126028197));
#441=CARTESIAN_POINT('',(-5.49999999999944,-35.0989909677802,0.0));
#442=CARTESIAN_POINT('',(-5.49999999999944,-35.0989909677802,0.579596845996729));
#443=CARTESIAN_POINT('',(-5.3807675329742,-34.7714024569625,1.1390086725257));
#444=CARTESIAN_POINT('',(-5.27931439059071,-34.4926622391312,1.6150039203288));
#445=CARTESIAN_POINT('',(-5.1,-34.0,2.059126028197));
#446=CARTESIAN_POINT('',(-5.1,-34.0,6.098565405077));
#447=CARTESIAN_POINT('',(-5.1,-34.0,2.059126028197));
#448=VECTOR('',#557,1.0);
#449=CARTESIAN_POINT('',(-7.283821405597,-40.0,3.185662526283));
#450=CARTESIAN_POINT('',(-5.1,-34.0,6.098565405077));
#451=CARTESIAN_POINT('',(-5.73268777448404,-35.7382953739597,5.56947250608376));
#452=CARTESIAN_POINT('',(-6.24111333712728,-37.1351831267954,4.924530872391));
#453=CARTESIAN_POINT('',(-6.87496721654056,-38.8766823477169,4.1204824795722));
#454=CARTESIAN_POINT('',(-7.28382140559738,-39.9999999999999,3.185662526283));
#455=CARTESIAN_POINT('',(-7.283821405597,-40.0,-3.185662526283));
#456=CARTESIAN_POINT('',(-7.283821405597,-40.0,-3.185662526283));
#457=VECTOR('',#558,1.0);
#458=CARTESIAN_POINT('',(-5.1,-34.0,-6.098565405077));
#459=CARTESIAN_POINT('',(-7.28382140559738,-39.9999999999999,-3.185662526283));
#460=CARTESIAN_POINT('',(-6.87507800191733,-38.876986728038,-4.12022917562299));
#461=CARTESIAN_POINT('',(-6.24111333712729,-37.1351831267954,-4.924530872391));
#462=CARTESIAN_POINT('',(-5.73289692271305,-35.7388700039963,-5.56929760331612));
#463=CARTESIAN_POINT('',(-5.1,-34.0,-6.098565405077));
#464=CARTESIAN_POINT('',(-5.1,-34.0,-2.059126028197));
#465=CARTESIAN_POINT('',(-5.1,-34.0,-6.098565405077));
#466=VECTOR('',#559,1.0);
#467=CARTESIAN_POINT('',(-5.1,-34.0,-2.059126028197));
#468=CARTESIAN_POINT('',(-5.2791510067828,-34.4922133458082,-1.61540858590485));
#469=CARTESIAN_POINT('',(-5.3807675329742,-34.7714024569625,-1.1390086725257));
#470=CARTESIAN_POINT('',(-5.49999999999944,-35.0989909677802,-0.58002147731483));
#471=CARTESIAN_POINT('',(-5.49999999999944,-35.0989909677802,0.0));
#472=CARTESIAN_POINT('',(5.5,-35.09899096778,0.0));
#473=CARTESIAN_POINT('',(5.1,-34.0,-2.059126028197));
#474=CARTESIAN_POINT('',(5.49999999999906,-35.0989909677803,0.0));
#475=CARTESIAN_POINT('',(5.49999999999906,-35.0989909677803,-0.57959684599628));
#476=CARTESIAN_POINT('',(5.38076753297382,-34.7714024569627,-1.1390086725257));
#477=CARTESIAN_POINT('',(5.27931439059049,-34.4926622391318,-1.61500392032839));
#478=CARTESIAN_POINT('',(5.09999999999962,-34.0000000000001,-2.059126028197));
#479=CARTESIAN_POINT('',(5.1,-34.0,2.059126028197));
#480=CARTESIAN_POINT('',(5.09999999999962,-34.0000000000001,2.059126028197));
#481=CARTESIAN_POINT('',(5.2791510067825,-34.4922133458086,1.61540858590464));
#482=CARTESIAN_POINT('',(5.38076753297382,-34.7714024569627,1.1390086725257));
#483=CARTESIAN_POINT('',(5.49999999999906,-35.0989909677803,0.580021477314612));
#484=CARTESIAN_POINT('',(5.49999999999906,-35.0989909677803,0.0));
#485=CARTESIAN_POINT('',(5.1,-15.0,2.059126028197));
#486=CARTESIAN_POINT('',(5.1,-34.0,2.059126028197));
#487=VECTOR('',#560,1.0);
#488=CARTESIAN_POINT('',(-5.1,-15.0,2.059126028197));
#489=AXIS2_PLACEMENT_3D('',#561,#562,#563);
#490=CARTESIAN_POINT('',(-5.1,-34.0,2.059126028197));
#491=VECTOR('',#564,1.0);
#492=CARTESIAN_POINT('',(-5.1,-15.0,-2.059126028197));
#493=CARTESIAN_POINT('',(-5.1,-34.0,-2.059126028197));
#494=VECTOR('',#565,1.0);
#495=CARTESIAN_POINT('',(5.1,-15.0,-2.059126028197));
#496=AXIS2_PLACEMENT_3D('',#566,#567,#568);
#497=CARTESIAN_POINT('',(5.1,-34.0,-2.059126028197));
#498=VECTOR('',#569,1.0);
#499=CARTESIAN_POINT('',(-5.5,-3.0,0.0));
#500=AXIS2_PLACEMENT_3D('',#570,#571,#572);
#501=CARTESIAN_POINT('',(5.1,-34.0,-6.098565405077));
#502=CARTESIAN_POINT('',(5.1,-34.0,-6.098565405077));
#503=VECTOR('',#573,1.0);
#504=CARTESIAN_POINT('',(7.283821405597,-40.0,-3.185662526283));
#505=CARTESIAN_POINT('',(5.09999999999962,-34.0000000000001,-6.098565405077));
#506=CARTESIAN_POINT('',(5.73268777447839,-35.7382953739454,-5.56947250608817));
#507=CARTESIAN_POINT('',(6.2411133371269,-37.1351831267955,-4.924530872391));
#508=CARTESIAN_POINT('',(6.87496721653739,-38.8766823477094,-4.12048247957857));
#509=CARTESIAN_POINT('',(7.283821405597,-40.0,-3.185662526283));
#510=CARTESIAN_POINT('',(7.283821405597,-40.0,3.185662526283));
#511=CARTESIAN_POINT('',(7.283821405597,-40.0,-3.185662526283));
#512=VECTOR('',#574,1.0);
#513=CARTESIAN_POINT('',(5.1,-34.0,6.098565405077));
#514=CARTESIAN_POINT('',(7.283821405597,-40.0,3.185662526283));
#515=CARTESIAN_POINT('',(6.87507800191818,-38.8769867280415,4.1202291756202));
#516=CARTESIAN_POINT('',(6.2411133371269,-37.1351831267956,4.924530872391));
#517=CARTESIAN_POINT('',(5.73289692271498,-35.7388700040027,5.5692976033142));
#518=CARTESIAN_POINT('',(5.09999999999962,-34.0000000000001,6.098565405077));
#519=CARTESIAN_POINT('',(5.1,-34.0,2.059126028197));
#520=VECTOR('',#575,1.0);
#521=AXIS2_PLACEMENT_3D('',#576,#577,#578);
#522=CARTESIAN_POINT('',(7.95,-12.0,0.0));
#523=AXIS2_PLACEMENT_3D('',#579,#580,#581);
#524=CARTESIAN_POINT('',(-5.1,-15.0,6.098565405077));
#525=CARTESIAN_POINT('',(-5.1,-34.0,6.098565405077));
#526=VECTOR('',#582,1.0);
#527=CARTESIAN_POINT('',(5.1,-15.0,6.098565405077));
#528=AXIS2_PLACEMENT_3D('',#583,#584,#585);
#529=CARTESIAN_POINT('',(5.1,-34.0,6.098565405077));
#530=VECTOR('',#586,1.0);
#531=AXIS2_PLACEMENT_3D('',#587,#588,#589);
#532=CARTESIAN_POINT('',(5.1,-15.0,-6.098565405077));
#533=CARTESIAN_POINT('',(5.1,-34.0,-6.098565405077));
#534=VECTOR('',#590,1.0);
#535=CARTESIAN_POINT('',(-5.1,-15.0,-6.098565405077));
#536=AXIS2_PLACEMENT_3D('',#591,#592,#593);
#537=CARTESIAN_POINT('',(-5.1,-34.0,-6.098565405077));
#538=VECTOR('',#594,1.0);
#539=CARTESIAN_POINT('',(7.95,0.0,0.0));
#540=AXIS2_PLACEMENT_3D('',#595,#596,#597);
#541=CARTESIAN_POINT('',(7.95,-7.0,0.0));
#542=AXIS2_PLACEMENT_3D('',#598,#599,#600);
#543=CARTESIAN_POINT('',(-7.0,-12.0,0.0));
#544=AXIS2_PLACEMENT_3D('',#601,#602,#603);
#545=CARTESIAN_POINT('',(7.0,-7.0,0.0));
#546=AXIS2_PLACEMENT_3D('',#604,#605,#606);
#547=CARTESIAN_POINT('',(-5.1,-15.0,-6.098565405077));
#548=VECTOR('',#607,1.0);
#549=CARTESIAN_POINT('',(5.1,-15.0,-6.098565405077));
#550=VECTOR('',#608,1.0);
#551=CARTESIAN_POINT('',(5.1,-15.0,2.059126028197));
#552=VECTOR('',#609,1.0);
#553=CARTESIAN_POINT('',(-5.1,-15.0,2.059126028197));
#554=VECTOR('',#610,1.0);
#555=CARTESIAN_POINT('',(-6.028980942125,0.0,0.0));
#556=AXIS2_PLACEMENT_3D('',#611,#612,#613);
#557=DIRECTION('',(0.0,0.0,1.0));
#558=DIRECTION('',(0.0,0.0,1.0));
#559=DIRECTION('',(0.0,0.0,1.0));
#560=DIRECTION('',(0.0,1.0,0.0));
#561=CARTESIAN_POINT('',(0.0,-15.0,0.0));
#562=DIRECTION('',(0.0,1.0,0.0));
#563=DIRECTION('',(-0.927272727272739,0.0,0.374386550581316));
#564=DIRECTION('',(0.0,1.0,0.0));
#565=DIRECTION('',(0.0,1.0,0.0));
#566=CARTESIAN_POINT('',(0.0,-15.0,0.0));
#567=DIRECTION('',(0.0,1.0,0.0));
#568=DIRECTION('',(0.927272727272739,0.0,-0.374386550581316));
#569=DIRECTION('',(0.0,1.0,0.0));
#570=CARTESIAN_POINT('',(0.0,-3.0,0.0));
#571=DIRECTION('',(0.0,-1.0,0.0));
#572=DIRECTION('',(-1.0,0.0,0.0));
#573=DIRECTION('',(0.0,0.0,1.0));
#574=DIRECTION('',(0.0,0.0,1.0));
#575=DIRECTION('',(0.0,0.0,1.0));
#576=CARTESIAN_POINT('',(0.0,-40.0,0.0));
#577=DIRECTION('',(0.0,-1.0,0.0));
#578=DIRECTION('',(-0.916203950389582,0.0,0.400712267456993));
#579=CARTESIAN_POINT('',(0.0,-12.0,0.0));
#580=DIRECTION('',(0.0,-1.0,0.0));
#581=DIRECTION('',(1.0,0.0,0.0));
#582=DIRECTION('',(0.0,1.0,0.0));
#583=CARTESIAN_POINT('',(0.0,-15.0,0.0));
#584=DIRECTION('',(0.0,-1.0,0.0));
#585=DIRECTION('',(0.641509433962277,0.0,0.767115145292673));
#586=DIRECTION('',(0.0,1.0,0.0));
#587=CARTESIAN_POINT('',(0.0,-40.0,0.0));
#588=DIRECTION('',(-0.0,1.0,0.0));
#589=DIRECTION('',(1.0,0.0,0.0));
#590=DIRECTION('',(0.0,1.0,0.0));
#591=CARTESIAN_POINT('',(0.0,-15.0,0.0));
#592=DIRECTION('',(0.0,-1.0,-0.0));
#593=DIRECTION('',(-0.641509433962277,0.0,-0.767115145292673));
#594=DIRECTION('',(0.0,1.0,0.0));
#595=CARTESIAN_POINT('',(0.0,0.0,0.0));
#596=DIRECTION('',(0.0,-1.0,0.0));
#597=DIRECTION('',(1.0,0.0,0.0));
#598=CARTESIAN_POINT('',(0.0,-7.0,0.0));
#599=DIRECTION('',(0.0,-1.0,0.0));
#600=DIRECTION('',(1.0,0.0,0.0));
#601=CARTESIAN_POINT('',(0.0,-12.0,0.0));
#602=DIRECTION('',(0.0,1.0,0.0));
#603=DIRECTION('',(-1.0,0.0,0.0));
#604=CARTESIAN_POINT('',(0.0,-7.0,0.0));
#605=DIRECTION('',(-0.0,1.0,0.0));
#606=DIRECTION('',(1.0,0.0,0.0));
#607=DIRECTION('',(0.0,0.0,1.0));
#608=DIRECTION('',(0.0,0.0,1.0));
#609=DIRECTION('',(0.0,0.0,1.0));
#610=DIRECTION('',(0.0,0.0,1.0));
#611=CARTESIAN_POINT('',(0.0,0.0,0.0));
#612=DIRECTION('',(0.0,-1.0,0.0));
#613=DIRECTION('',(-1.0,0.0,0.0));
ENDSEC;
END-ISO-10303-21;
