ISO-10303-21;
HEADER;
/* Generated by software containing ST-Developer
 * from STEP Tools, Inc. (www.steptools.com) 
 */

FILE_DESCRIPTION(
/* description */ (''),
/* implementation_level */ '2;1');

FILE_NAME(
/* name */ 'AIR SHOCKS STOPPER PART2 v1.step',
/* time_stamp */ '2023-01-21T20:22:42+01:00',
/* author */ (''),
/* organization */ (''),
/* preprocessor_version */ 'ST-DEVELOPER v19.2',
/* originating_system */ 'Autodesk Translation Framework v11.17.0.187',

/* authorisation */ '');

FILE_SCHEMA (('AUTOMOTIVE_DESIGN { 1 0 10303 214 3 1 1 }'));
ENDSEC;

DATA;
#10=MECHANICAL_DESIGN_GEOMETRIC_PRESENTATION_REPRESENTATION('',(#13),#417);
#11=SHAPE_REPRESENTATION_RELATIONSHIP('SRR','None',#424,#12);
#12=ADVANCED_BREP_SHAPE_REPRESENTATION('',(#14),#416);
#13=STYLED_ITEM('',(#433),#14);
#14=MANIFOLD_SOLID_BREP('Body2',#195);
#15=B_SPLINE_CURVE_WITH_KNOTS('',3,(#309,#310,#311,#312,#313,#314,#315,
#316,#317,#318,#319,#320,#321,#322,#323,#324,#325,#326,#327,#328,#329,#330,
#331,#332,#333,#334,#335,#336),.UNSPECIFIED.,.F.,.F.,(4,2,2,2,2,2,2,2,2,
2,2,2,2,4),(0.,0.0479321535176366,0.0958643070352731,0.191728614070546,
0.351044896180521,0.510361178290496,0.65418430627411,0.798007434257724,
0.89071454473804,0.983421655218355,1.07612876569867,1.16883587617899,1.3126590041626,
1.45648213214622),.UNSPECIFIED.);
#16=B_SPLINE_CURVE_WITH_KNOTS('',3,(#337,#338,#339,#340,#341,#342,#343,
#344,#345,#346,#347,#348),.UNSPECIFIED.,.F.,.F.,(4,2,2,2,2,4),(1.45648213214622,
1.61579841425619,1.77511469636616,1.87097900340144,1.91891115691907,1.96684331043671),
 .UNSPECIFIED.);
#17=B_SPLINE_CURVE_WITH_KNOTS('',3,(#351,#352,#353,#354,#355,#356,#357,
#358,#359,#360,#361,#362,#363,#364,#365,#366,#367,#368,#369,#370,#371,#372,
#373,#374,#375,#376,#377,#378,#379,#380),.UNSPECIFIED.,.F.,.F.,(4,2,2,2,
2,2,2,2,2,2,2,2,2,2,4),(0.,0.0927071104803155,0.185414220960631,0.329237348944245,
0.47306047692786,0.632376759037834,0.791693041147809,0.887557348183082,
0.935489501700719,0.983421655218355,1.03135380873599,1.07928596225363,1.1751502692889,
1.33446655139888,1.49378283350885),.UNSPECIFIED.);
#18=B_SPLINE_CURVE_WITH_KNOTS('',3,(#381,#382,#383,#384,#385,#386,#387,
#388,#389,#390),.UNSPECIFIED.,.F.,.F.,(4,2,2,2,4),(1.49378283350885,1.63760596149247,
1.78142908947608,1.8741361999564,1.96684331043671),.UNSPECIFIED.);
#19=CYLINDRICAL_SURFACE('',#214,37.);
#20=CYLINDRICAL_SURFACE('',#218,2.5175);
#21=CYLINDRICAL_SURFACE('',#219,2.5175);
#22=CYLINDRICAL_SURFACE('',#222,19.5);
#23=FACE_BOUND('',#63,.T.);
#24=FACE_BOUND('',#65,.T.);
#25=FACE_BOUND('',#66,.T.);
#26=FACE_BOUND('',#71,.T.);
#27=LINE('',#291,#37);
#28=LINE('',#297,#38);
#29=LINE('',#299,#39);
#30=LINE('',#300,#40);
#31=LINE('',#305,#41);
#32=LINE('',#398,#42);
#33=LINE('',#402,#43);
#34=LINE('',#405,#44);
#35=LINE('',#407,#45);
#36=LINE('',#408,#46);
#37=VECTOR('',#237,10.);
#38=VECTOR('',#238,10.);
#39=VECTOR('',#239,10.);
#40=VECTOR('',#240,10.);
#41=VECTOR('',#245,10.);
#42=VECTOR('',#254,2.5175);
#43=VECTOR('',#259,2.5175);
#44=VECTOR('',#262,10.);
#45=VECTOR('',#263,10.);
#46=VECTOR('',#264,10.);
#47=PLANE('',#212);
#48=PLANE('',#221);
#49=PLANE('',#225);
#50=PLANE('',#226);
#51=FACE_OUTER_BOUND('',#61,.T.);
#52=FACE_OUTER_BOUND('',#62,.T.);
#53=FACE_OUTER_BOUND('',#64,.T.);
#54=FACE_OUTER_BOUND('',#67,.T.);
#55=FACE_OUTER_BOUND('',#68,.T.);
#56=FACE_OUTER_BOUND('',#69,.T.);
#57=FACE_OUTER_BOUND('',#70,.T.);
#58=FACE_OUTER_BOUND('',#72,.T.);
#59=FACE_OUTER_BOUND('',#73,.T.);
#60=FACE_OUTER_BOUND('',#74,.T.);
#61=EDGE_LOOP('',(#131,#132,#133,#134));
#62=EDGE_LOOP('',(#135,#136,#137,#138,#139,#140));
#63=EDGE_LOOP('',(#141));
#64=EDGE_LOOP('',(#142,#143,#144,#145));
#65=EDGE_LOOP('',(#146,#147));
#66=EDGE_LOOP('',(#148,#149));
#67=EDGE_LOOP('',(#150,#151,#152,#153));
#68=EDGE_LOOP('',(#154,#155,#156,#157,#158));
#69=EDGE_LOOP('',(#159,#160,#161,#162,#163));
#70=EDGE_LOOP('',(#164,#165,#166,#167,#168,#169));
#71=EDGE_LOOP('',(#170));
#72=EDGE_LOOP('',(#171,#172,#173,#174));
#73=EDGE_LOOP('',(#175,#176,#177,#178));
#74=EDGE_LOOP('',(#179,#180,#181,#182));
#75=CIRCLE('',#210,35.5);
#76=CIRCLE('',#211,37.);
#77=CIRCLE('',#213,2.5175);
#78=CIRCLE('',#215,37.);
#79=CIRCLE('',#217,35.5);
#80=CIRCLE('',#220,2.5175);
#81=CIRCLE('',#223,19.5);
#82=CIRCLE('',#224,19.5);
#83=(
BOUNDED_CURVE()
B_SPLINE_CURVE(2,(#279,#280,#281),.UNSPECIFIED.,.F.,.F.)
B_SPLINE_CURVE_WITH_KNOTS((3,3),(1.45683504314528,1.69762305954106),
 .UNSPECIFIED.)
CURVE()
GEOMETRIC_REPRESENTATION_ITEM()
RATIONAL_B_SPLINE_CURVE((1.00258840853377,1.00150811240954,1.))
REPRESENTATION_ITEM('')
);
#84=(
BOUNDED_CURVE()
B_SPLINE_CURVE(2,(#285,#286,#287),.UNSPECIFIED.,.F.,.F.)
B_SPLINE_CURVE_WITH_KNOTS((3,3),(0.,0.24078801639578),.UNSPECIFIED.)
CURVE()
GEOMETRIC_REPRESENTATION_ITEM()
RATIONAL_B_SPLINE_CURVE((1.,1.00150811240954,1.00258840853377))
REPRESENTATION_ITEM('')
);
#85=(
BOUNDED_CURVE()
B_SPLINE_CURVE(2,(#293,#294,#295),.UNSPECIFIED.,.F.,.F.)
B_SPLINE_CURVE_WITH_KNOTS((3,3),(0.,0.240788016709507),.UNSPECIFIED.)
CURVE()
GEOMETRIC_REPRESENTATION_ITEM()
RATIONAL_B_SPLINE_CURVE((1.,1.00150811248355,1.00258840866024))
REPRESENTATION_ITEM('')
);
#86=(
BOUNDED_CURVE()
B_SPLINE_CURVE(2,(#393,#394,#395),.UNSPECIFIED.,.F.,.F.)
B_SPLINE_CURVE_WITH_KNOTS((3,3),(1.45683504283155,1.69762305954106),
 .UNSPECIFIED.)
CURVE()
GEOMETRIC_REPRESENTATION_ITEM()
RATIONAL_B_SPLINE_CURVE((1.00258840866024,1.00150811248355,1.))
REPRESENTATION_ITEM('')
);
#87=VERTEX_POINT('',#277);
#88=VERTEX_POINT('',#278);
#89=VERTEX_POINT('',#282);
#90=VERTEX_POINT('',#284);
#91=VERTEX_POINT('',#290);
#92=VERTEX_POINT('',#292);
#93=VERTEX_POINT('',#296);
#94=VERTEX_POINT('',#298);
#95=VERTEX_POINT('',#301);
#96=VERTEX_POINT('',#304);
#97=VERTEX_POINT('',#307);
#98=VERTEX_POINT('',#308);
#99=VERTEX_POINT('',#349);
#100=VERTEX_POINT('',#350);
#101=VERTEX_POINT('',#392);
#102=VERTEX_POINT('',#400);
#103=VERTEX_POINT('',#404);
#104=VERTEX_POINT('',#406);
#105=EDGE_CURVE('',#87,#88,#83,.T.);
#106=EDGE_CURVE('',#88,#89,#75,.T.);
#107=EDGE_CURVE('',#89,#90,#84,.T.);
#108=EDGE_CURVE('',#90,#87,#76,.T.);
#109=EDGE_CURVE('',#91,#87,#27,.T.);
#110=EDGE_CURVE('',#92,#91,#85,.T.);
#111=EDGE_CURVE('',#93,#92,#28,.T.);
#112=EDGE_CURVE('',#93,#94,#29,.T.);
#113=EDGE_CURVE('',#88,#94,#30,.T.);
#114=EDGE_CURVE('',#95,#95,#77,.T.);
#115=EDGE_CURVE('',#96,#90,#31,.T.);
#116=EDGE_CURVE('',#91,#96,#78,.T.);
#117=EDGE_CURVE('',#97,#98,#15,.T.);
#118=EDGE_CURVE('',#98,#97,#16,.T.);
#119=EDGE_CURVE('',#99,#100,#17,.T.);
#120=EDGE_CURVE('',#100,#99,#18,.T.);
#121=EDGE_CURVE('',#96,#101,#86,.T.);
#122=EDGE_CURVE('',#101,#92,#79,.T.);
#123=EDGE_CURVE('',#95,#98,#32,.T.);
#124=EDGE_CURVE('',#102,#102,#80,.T.);
#125=EDGE_CURVE('',#102,#100,#33,.T.);
#126=EDGE_CURVE('',#103,#89,#34,.T.);
#127=EDGE_CURVE('',#104,#103,#35,.T.);
#128=EDGE_CURVE('',#101,#104,#36,.T.);
#129=EDGE_CURVE('',#104,#93,#81,.T.);
#130=EDGE_CURVE('',#94,#103,#82,.T.);
#131=ORIENTED_EDGE('',*,*,#105,.T.);
#132=ORIENTED_EDGE('',*,*,#106,.T.);
#133=ORIENTED_EDGE('',*,*,#107,.T.);
#134=ORIENTED_EDGE('',*,*,#108,.T.);
#135=ORIENTED_EDGE('',*,*,#105,.F.);
#136=ORIENTED_EDGE('',*,*,#109,.F.);
#137=ORIENTED_EDGE('',*,*,#110,.F.);
#138=ORIENTED_EDGE('',*,*,#111,.F.);
#139=ORIENTED_EDGE('',*,*,#112,.T.);
#140=ORIENTED_EDGE('',*,*,#113,.F.);
#141=ORIENTED_EDGE('',*,*,#114,.T.);
#142=ORIENTED_EDGE('',*,*,#108,.F.);
#143=ORIENTED_EDGE('',*,*,#115,.F.);
#144=ORIENTED_EDGE('',*,*,#116,.F.);
#145=ORIENTED_EDGE('',*,*,#109,.T.);
#146=ORIENTED_EDGE('',*,*,#117,.T.);
#147=ORIENTED_EDGE('',*,*,#118,.T.);
#148=ORIENTED_EDGE('',*,*,#119,.T.);
#149=ORIENTED_EDGE('',*,*,#120,.T.);
#150=ORIENTED_EDGE('',*,*,#110,.T.);
#151=ORIENTED_EDGE('',*,*,#116,.T.);
#152=ORIENTED_EDGE('',*,*,#121,.T.);
#153=ORIENTED_EDGE('',*,*,#122,.T.);
#154=ORIENTED_EDGE('',*,*,#114,.F.);
#155=ORIENTED_EDGE('',*,*,#123,.T.);
#156=ORIENTED_EDGE('',*,*,#117,.F.);
#157=ORIENTED_EDGE('',*,*,#118,.F.);
#158=ORIENTED_EDGE('',*,*,#123,.F.);
#159=ORIENTED_EDGE('',*,*,#124,.F.);
#160=ORIENTED_EDGE('',*,*,#125,.T.);
#161=ORIENTED_EDGE('',*,*,#119,.F.);
#162=ORIENTED_EDGE('',*,*,#120,.F.);
#163=ORIENTED_EDGE('',*,*,#125,.F.);
#164=ORIENTED_EDGE('',*,*,#107,.F.);
#165=ORIENTED_EDGE('',*,*,#126,.F.);
#166=ORIENTED_EDGE('',*,*,#127,.F.);
#167=ORIENTED_EDGE('',*,*,#128,.F.);
#168=ORIENTED_EDGE('',*,*,#121,.F.);
#169=ORIENTED_EDGE('',*,*,#115,.T.);
#170=ORIENTED_EDGE('',*,*,#124,.T.);
#171=ORIENTED_EDGE('',*,*,#129,.F.);
#172=ORIENTED_EDGE('',*,*,#127,.T.);
#173=ORIENTED_EDGE('',*,*,#130,.F.);
#174=ORIENTED_EDGE('',*,*,#112,.F.);
#175=ORIENTED_EDGE('',*,*,#106,.F.);
#176=ORIENTED_EDGE('',*,*,#113,.T.);
#177=ORIENTED_EDGE('',*,*,#130,.T.);
#178=ORIENTED_EDGE('',*,*,#126,.T.);
#179=ORIENTED_EDGE('',*,*,#122,.F.);
#180=ORIENTED_EDGE('',*,*,#128,.T.);
#181=ORIENTED_EDGE('',*,*,#129,.T.);
#182=ORIENTED_EDGE('',*,*,#111,.T.);
#183=CONICAL_SURFACE('',#209,36.25,0.785398163397451);
#184=CONICAL_SURFACE('',#216,36.25,0.785398163397451);
#185=ADVANCED_FACE('',(#51),#183,.T.);
#186=ADVANCED_FACE('',(#52,#23),#47,.T.);
#187=ADVANCED_FACE('',(#53,#24,#25),#19,.T.);
#188=ADVANCED_FACE('',(#54),#184,.T.);
#189=ADVANCED_FACE('',(#55),#20,.F.);
#190=ADVANCED_FACE('',(#56),#21,.F.);
#191=ADVANCED_FACE('',(#57,#26),#48,.T.);
#192=ADVANCED_FACE('',(#58),#22,.F.);
#193=ADVANCED_FACE('',(#59),#49,.T.);
#194=ADVANCED_FACE('',(#60),#50,.F.);
#195=CLOSED_SHELL('',(#185,#186,#187,#188,#189,#190,#191,#192,#193,#194));
#196=DERIVED_UNIT_ELEMENT(#198,1.);
#197=DERIVED_UNIT_ELEMENT(#419,-3.);
#198=(
MASS_UNIT()
NAMED_UNIT(*)
SI_UNIT(.KILO.,.GRAM.)
);
#199=DERIVED_UNIT((#196,#197));
#200=MEASURE_REPRESENTATION_ITEM('density measure',
POSITIVE_RATIO_MEASURE(2700.),#199);
#201=PROPERTY_DEFINITION_REPRESENTATION(#206,#203);
#202=PROPERTY_DEFINITION_REPRESENTATION(#207,#204);
#203=REPRESENTATION('material name',(#205),#416);
#204=REPRESENTATION('density',(#200),#416);
#205=DESCRIPTIVE_REPRESENTATION_ITEM('Aluminum 6061, Welded',
'Aluminum 6061, Welded');
#206=PROPERTY_DEFINITION('material property','material name',#426);
#207=PROPERTY_DEFINITION('material property','density of part',#426);
#208=AXIS2_PLACEMENT_3D('placement',#275,#227,#228);
#209=AXIS2_PLACEMENT_3D('',#276,#229,#230);
#210=AXIS2_PLACEMENT_3D('',#283,#231,#232);
#211=AXIS2_PLACEMENT_3D('',#288,#233,#234);
#212=AXIS2_PLACEMENT_3D('',#289,#235,#236);
#213=AXIS2_PLACEMENT_3D('',#302,#241,#242);
#214=AXIS2_PLACEMENT_3D('',#303,#243,#244);
#215=AXIS2_PLACEMENT_3D('',#306,#246,#247);
#216=AXIS2_PLACEMENT_3D('',#391,#248,#249);
#217=AXIS2_PLACEMENT_3D('',#396,#250,#251);
#218=AXIS2_PLACEMENT_3D('',#397,#252,#253);
#219=AXIS2_PLACEMENT_3D('',#399,#255,#256);
#220=AXIS2_PLACEMENT_3D('',#401,#257,#258);
#221=AXIS2_PLACEMENT_3D('',#403,#260,#261);
#222=AXIS2_PLACEMENT_3D('',#409,#265,#266);
#223=AXIS2_PLACEMENT_3D('',#410,#267,#268);
#224=AXIS2_PLACEMENT_3D('',#411,#269,#270);
#225=AXIS2_PLACEMENT_3D('',#412,#271,#272);
#226=AXIS2_PLACEMENT_3D('',#413,#273,#274);
#227=DIRECTION('axis',(0.,0.,1.));
#228=DIRECTION('refdir',(1.,0.,0.));
#229=DIRECTION('center_axis',(-1.,0.,0.));
#230=DIRECTION('ref_axis',(0.,0.999177894357497,0.0405405405405405));
#231=DIRECTION('center_axis',(-1.,0.,0.));
#232=DIRECTION('ref_axis',(0.,0.999177894357497,0.0405405405405405));
#233=DIRECTION('center_axis',(1.,0.,0.));
#234=DIRECTION('ref_axis',(0.,0.999177894357497,0.0405405405405405));
#235=DIRECTION('center_axis',(0.,0.,-1.));
#236=DIRECTION('ref_axis',(0.,1.,0.));
#237=DIRECTION('',(1.,0.,0.));
#238=DIRECTION('',(0.,-1.,0.));
#239=DIRECTION('',(1.,0.,0.));
#240=DIRECTION('',(0.,1.,0.));
#241=DIRECTION('center_axis',(0.,0.,1.));
#242=DIRECTION('ref_axis',(-1.,0.,0.));
#243=DIRECTION('center_axis',(1.,0.,0.));
#244=DIRECTION('ref_axis',(0.,0.999177894357497,0.0405405405405405));
#245=DIRECTION('',(1.,0.,0.));
#246=DIRECTION('center_axis',(-1.,0.,0.));
#247=DIRECTION('ref_axis',(0.,0.999177894357497,0.0405405405405405));
#248=DIRECTION('center_axis',(1.,0.,0.));
#249=DIRECTION('ref_axis',(0.,0.999177894357497,0.0405405405405405));
#250=DIRECTION('center_axis',(1.,0.,0.));
#251=DIRECTION('ref_axis',(0.,0.999177894357497,0.0405405405405405));
#252=DIRECTION('center_axis',(0.,0.,1.));
#253=DIRECTION('ref_axis',(-1.,0.,0.));
#254=DIRECTION('',(0.,0.,1.));
#255=DIRECTION('center_axis',(0.,0.,1.));
#256=DIRECTION('ref_axis',(-1.,0.,0.));
#257=DIRECTION('center_axis',(0.,0.,1.));
#258=DIRECTION('ref_axis',(-1.,0.,0.));
#259=DIRECTION('',(0.,0.,1.));
#260=DIRECTION('center_axis',(0.,0.,-1.));
#261=DIRECTION('ref_axis',(0.,1.,0.));
#262=DIRECTION('',(0.,1.,0.));
#263=DIRECTION('',(1.,0.,0.));
#264=DIRECTION('',(0.,-1.,0.));
#265=DIRECTION('center_axis',(1.,0.,0.));
#266=DIRECTION('ref_axis',(0.,0.997037030524286,0.0769230769230769));
#267=DIRECTION('center_axis',(1.,0.,0.));
#268=DIRECTION('ref_axis',(0.,0.997037030524286,0.0769230769230769));
#269=DIRECTION('center_axis',(-1.,0.,0.));
#270=DIRECTION('ref_axis',(0.,0.997037030524286,0.0769230769230769));
#271=DIRECTION('center_axis',(1.,0.,0.));
#272=DIRECTION('ref_axis',(0.,1.,0.));
#273=DIRECTION('center_axis',(1.,0.,0.));
#274=DIRECTION('ref_axis',(0.,1.,0.));
#275=CARTESIAN_POINT('',(0.,0.,0.));
#276=CARTESIAN_POINT('Origin',(11.25,0.,0.));
#277=CARTESIAN_POINT('',(10.5,-36.9695820912274,1.5));
#278=CARTESIAN_POINT('',(12.,-35.4682957019364,1.5));
#279=CARTESIAN_POINT('Ctrl Pts',(10.5,-36.9695820912274,1.5));
#280=CARTESIAN_POINT('Ctrl Pts',(11.2655438678584,-36.2034083476111,1.5));
#281=CARTESIAN_POINT('Ctrl Pts',(12.,-35.4682957019364,1.5));
#282=CARTESIAN_POINT('',(12.,35.4682957019364,1.5));
#283=CARTESIAN_POINT('Origin',(12.,0.,0.));
#284=CARTESIAN_POINT('',(10.5,36.9695820912274,1.5));
#285=CARTESIAN_POINT('Ctrl Pts',(12.,35.4682957019364,1.5));
#286=CARTESIAN_POINT('Ctrl Pts',(11.2655438678584,36.2034083476111,1.5));
#287=CARTESIAN_POINT('Ctrl Pts',(10.5,36.9695820912274,1.5));
#288=CARTESIAN_POINT('Origin',(10.5,0.,0.));
#289=CARTESIAN_POINT('Origin',(0.,-36.9695820912274,1.5));
#290=CARTESIAN_POINT('',(1.5,-36.9695820912274,1.5));
#291=CARTESIAN_POINT('',(0.,-36.9695820912274,1.5));
#292=CARTESIAN_POINT('',(0.,-35.4682957019364,1.5));
#293=CARTESIAN_POINT('Ctrl Pts',(0.,-35.4682957019364,1.5));
#294=CARTESIAN_POINT('Ctrl Pts',(0.734456131989897,-36.2034083474593,1.5));
#295=CARTESIAN_POINT('Ctrl Pts',(1.5,-36.9695820912274,1.5));
#296=CARTESIAN_POINT('',(0.,-19.4422220952236,1.5));
#297=CARTESIAN_POINT('',(0.,-19.4422220952236,1.5));
#298=CARTESIAN_POINT('',(12.,-19.4422220952236,1.5));
#299=CARTESIAN_POINT('',(0.,-19.4422220952236,1.5));
#300=CARTESIAN_POINT('',(12.,-19.4422220952236,1.5));
#301=CARTESIAN_POINT('',(8.5175,-28.2059020932255,1.5));
#302=CARTESIAN_POINT('Origin',(6.,-28.2059020932255,1.5));
#303=CARTESIAN_POINT('Origin',(0.,0.,0.));
#304=CARTESIAN_POINT('',(1.5,36.9695820912274,1.5));
#305=CARTESIAN_POINT('',(0.,36.9695820912274,1.5));
#306=CARTESIAN_POINT('Origin',(1.5,0.,0.));
#307=CARTESIAN_POINT('',(6.,-30.7234020932255,20.6172879840679));
#308=CARTESIAN_POINT('',(8.5175,-28.2059020932255,23.9463376554199));
#309=CARTESIAN_POINT('Ctrl Pts',(6.,-30.7234020932255,20.6172879840679));
#310=CARTESIAN_POINT('Ctrl Pts',(5.84022615494121,-30.7234020932255,20.6172879840679));
#311=CARTESIAN_POINT('Ctrl Pts',(5.68174970599938,-30.7080119747796,20.6402708101102));
#312=CARTESIAN_POINT('Ctrl Pts',(5.37679232125827,-30.6499909579506,20.7263277783544));
#313=CARTESIAN_POINT('Ctrl Pts',(5.23031489388537,-30.6073436907426,20.7894033163073));
#314=CARTESIAN_POINT('Ctrl Pts',(4.81964945480642,-30.4488244058424,21.0215177021243));
#315=CARTESIAN_POINT('Ctrl Pts',(4.5842112298168,-30.3011680998822,21.2345818129234));
#316=CARTESIAN_POINT('Ctrl Pts',(4.09441021992469,-29.8980560454712,21.8012557431049));
#317=CARTESIAN_POINT('Ctrl Pts',(3.86254566062283,-29.5865600196243,22.2247210626703));
#318=CARTESIAN_POINT('Ctrl Pts',(3.55551637142372,-28.9126036130713,23.0946771490791));
#319=CARTESIAN_POINT('Ctrl Pts',(3.4825,-28.5495995243437,23.5415034702802));
#320=CARTESIAN_POINT('Ctrl Pts',(3.4825,-27.8956284729233,24.3118026163791));
#321=CARTESIAN_POINT('Ctrl Pts',(3.54241501648698,-27.550428540482,24.7025571570817));
#322=CARTESIAN_POINT('Ctrl Pts',(3.82740953955748,-26.8833209555745,25.426944294664));
#323=CARTESIAN_POINT('Ctrl Pts',(4.05217407053505,-26.5615698117749,25.7608448774739));
#324=CARTESIAN_POINT('Ctrl Pts',(4.55022917006454,-26.1316623595474,26.1952974927072));
#325=CARTESIAN_POINT('Ctrl Pts',(4.80116039156401,-25.9711351338329,26.3538279423377));
#326=CARTESIAN_POINT('Ctrl Pts',(5.37129558531039,-25.7490480274773,26.570860566529));
#327=CARTESIAN_POINT('Ctrl Pts',(5.69097629839895,-25.6884020932255,26.6290442542869));
#328=CARTESIAN_POINT('Ctrl Pts',(6.30902370160105,-25.6884020932255,26.6290442542869));
#329=CARTESIAN_POINT('Ctrl Pts',(6.62870441468961,-25.7490480274773,26.570860566529));
#330=CARTESIAN_POINT('Ctrl Pts',(7.19883960843599,-25.9711351338329,26.3538279423377));
#331=CARTESIAN_POINT('Ctrl Pts',(7.44977082993546,-26.1316623595474,26.1952974927072));
#332=CARTESIAN_POINT('Ctrl Pts',(7.94782592946495,-26.5615698117749,25.7608448774739));
#333=CARTESIAN_POINT('Ctrl Pts',(8.17259046044253,-26.8833209555745,25.426944294664));
#334=CARTESIAN_POINT('Ctrl Pts',(8.45758498351302,-27.550428540482,24.7025571570817));
#335=CARTESIAN_POINT('Ctrl Pts',(8.5175,-27.8956284729233,24.3118026163791));
#336=CARTESIAN_POINT('Ctrl Pts',(8.5175,-28.2059020932255,23.9463376554199));
#337=CARTESIAN_POINT('Ctrl Pts',(8.5175,-28.2059020932255,23.9463376554199));
#338=CARTESIAN_POINT('Ctrl Pts',(8.5175,-28.5495995243437,23.5415034702802));
#339=CARTESIAN_POINT('Ctrl Pts',(8.44448362857628,-28.9126036130713,23.0946771490791));
#340=CARTESIAN_POINT('Ctrl Pts',(8.13745433937717,-29.5865600196243,22.2247210626703));
#341=CARTESIAN_POINT('Ctrl Pts',(7.90558978007532,-29.8980560454712,21.8012557431049));
#342=CARTESIAN_POINT('Ctrl Pts',(7.4157887701832,-30.3011680998822,21.2345818129234));
#343=CARTESIAN_POINT('Ctrl Pts',(7.18035054519358,-30.4488244058424,21.0215177021243));
#344=CARTESIAN_POINT('Ctrl Pts',(6.76968510611463,-30.6073436907426,20.7894033163073));
#345=CARTESIAN_POINT('Ctrl Pts',(6.62320767874173,-30.6499909579506,20.7263277783544));
#346=CARTESIAN_POINT('Ctrl Pts',(6.31825029400062,-30.7080119747796,20.6402708101102));
#347=CARTESIAN_POINT('Ctrl Pts',(6.15977384505879,-30.7234020932255,20.6172879840679));
#348=CARTESIAN_POINT('Ctrl Pts',(6.,-30.7234020932255,20.6172879840679));
#349=CARTESIAN_POINT('',(6.,25.6884020932255,26.6290442542869));
#350=CARTESIAN_POINT('',(8.5175,28.2059020932255,23.9463376554199));
#351=CARTESIAN_POINT('Ctrl Pts',(6.,25.6884020932255,26.6290442542869));
#352=CARTESIAN_POINT('Ctrl Pts',(5.69097629839895,25.6884020932255,26.6290442542869));
#353=CARTESIAN_POINT('Ctrl Pts',(5.37129558531039,25.7490480274773,26.570860566529));
#354=CARTESIAN_POINT('Ctrl Pts',(4.80116039156401,25.9711351338329,26.3538279423377));
#355=CARTESIAN_POINT('Ctrl Pts',(4.55022917006454,26.1316623595474,26.1952974927072));
#356=CARTESIAN_POINT('Ctrl Pts',(4.05217407053505,26.5615698117749,25.7608448774739));
#357=CARTESIAN_POINT('Ctrl Pts',(3.82740953955748,26.8833209555745,25.426944294664));
#358=CARTESIAN_POINT('Ctrl Pts',(3.54241501648698,27.550428540482,24.7025571570817));
#359=CARTESIAN_POINT('Ctrl Pts',(3.4825,27.8956284729233,24.3118026163791));
#360=CARTESIAN_POINT('Ctrl Pts',(3.4825,28.5495995243437,23.5415034702802));
#361=CARTESIAN_POINT('Ctrl Pts',(3.55551637142372,28.9126036130713,23.0946771490791));
#362=CARTESIAN_POINT('Ctrl Pts',(3.86254566062283,29.5865600196243,22.2247210626703));
#363=CARTESIAN_POINT('Ctrl Pts',(4.09441021992469,29.8980560454712,21.8012557431049));
#364=CARTESIAN_POINT('Ctrl Pts',(4.5842112298168,30.3011680998822,21.2345818129234));
#365=CARTESIAN_POINT('Ctrl Pts',(4.81964945480642,30.4488244058424,21.0215177021243));
#366=CARTESIAN_POINT('Ctrl Pts',(5.23031489388537,30.6073436907426,20.7894033163073));
#367=CARTESIAN_POINT('Ctrl Pts',(5.37679232125827,30.6499909579506,20.7263277783544));
#368=CARTESIAN_POINT('Ctrl Pts',(5.68174970599938,30.7080119747796,20.6402708101102));
#369=CARTESIAN_POINT('Ctrl Pts',(5.84022615494121,30.7234020932255,20.6172879840679));
#370=CARTESIAN_POINT('Ctrl Pts',(6.15977384505879,30.7234020932255,20.6172879840679));
#371=CARTESIAN_POINT('Ctrl Pts',(6.31825029400062,30.7080119747796,20.6402708101102));
#372=CARTESIAN_POINT('Ctrl Pts',(6.62320767874173,30.6499909579506,20.7263277783544));
#373=CARTESIAN_POINT('Ctrl Pts',(6.76968510611463,30.6073436907426,20.7894033163073));
#374=CARTESIAN_POINT('Ctrl Pts',(7.18035054519359,30.4488244058424,21.0215177021243));
#375=CARTESIAN_POINT('Ctrl Pts',(7.4157887701832,30.3011680998822,21.2345818129234));
#376=CARTESIAN_POINT('Ctrl Pts',(7.90558978007532,29.8980560454712,21.8012557431049));
#377=CARTESIAN_POINT('Ctrl Pts',(8.13745433937717,29.5865600196243,22.2247210626703));
#378=CARTESIAN_POINT('Ctrl Pts',(8.44448362857628,28.9126036130713,23.0946771490791));
#379=CARTESIAN_POINT('Ctrl Pts',(8.5175,28.5495995243437,23.5415034702802));
#380=CARTESIAN_POINT('Ctrl Pts',(8.5175,28.2059020932255,23.9463376554199));
#381=CARTESIAN_POINT('Ctrl Pts',(8.5175,28.2059020932255,23.9463376554199));
#382=CARTESIAN_POINT('Ctrl Pts',(8.5175,27.8956284729233,24.3118026163791));
#383=CARTESIAN_POINT('Ctrl Pts',(8.45758498351302,27.550428540482,24.7025571570817));
#384=CARTESIAN_POINT('Ctrl Pts',(8.17259046044253,26.8833209555745,25.426944294664));
#385=CARTESIAN_POINT('Ctrl Pts',(7.94782592946495,26.5615698117749,25.7608448774739));
#386=CARTESIAN_POINT('Ctrl Pts',(7.44977082993546,26.1316623595474,26.1952974927072));
#387=CARTESIAN_POINT('Ctrl Pts',(7.19883960843599,25.9711351338329,26.3538279423377));
#388=CARTESIAN_POINT('Ctrl Pts',(6.62870441468961,25.7490480274773,26.570860566529));
#389=CARTESIAN_POINT('Ctrl Pts',(6.30902370160105,25.6884020932255,26.6290442542869));
#390=CARTESIAN_POINT('Ctrl Pts',(6.,25.6884020932255,26.6290442542869));
#391=CARTESIAN_POINT('Origin',(0.75,0.,0.));
#392=CARTESIAN_POINT('',(0.,35.4682957019364,1.5));
#393=CARTESIAN_POINT('Ctrl Pts',(1.5,36.9695820912274,1.5));
#394=CARTESIAN_POINT('Ctrl Pts',(0.734456131989896,36.2034083474593,1.5));
#395=CARTESIAN_POINT('Ctrl Pts',(0.,35.4682957019364,1.5));
#396=CARTESIAN_POINT('Origin',(0.,0.,0.));
#397=CARTESIAN_POINT('Origin',(6.,-28.2059020932255,15.));
#398=CARTESIAN_POINT('',(8.5175,-28.2059020932255,15.));
#399=CARTESIAN_POINT('Origin',(6.,28.2059020932255,15.));
#400=CARTESIAN_POINT('',(8.5175,28.2059020932255,1.5));
#401=CARTESIAN_POINT('Origin',(6.,28.2059020932255,1.5));
#402=CARTESIAN_POINT('',(8.5175,28.2059020932255,15.));
#403=CARTESIAN_POINT('Origin',(0.,19.4422220952236,1.5));
#404=CARTESIAN_POINT('',(12.,19.4422220952236,1.5));
#405=CARTESIAN_POINT('',(12.,37.000000551343,1.5));
#406=CARTESIAN_POINT('',(0.,19.4422220952236,1.5));
#407=CARTESIAN_POINT('',(0.,19.4422220952236,1.5));
#408=CARTESIAN_POINT('',(0.,37.000000551343,1.5));
#409=CARTESIAN_POINT('Origin',(0.,0.,0.));
#410=CARTESIAN_POINT('Origin',(0.,0.,0.));
#411=CARTESIAN_POINT('Origin',(12.,0.,0.));
#412=CARTESIAN_POINT('Origin',(12.,4.44089209850063E-15,19.25));
#413=CARTESIAN_POINT('Origin',(0.,4.44089209850063E-15,19.25));
#414=UNCERTAINTY_MEASURE_WITH_UNIT(LENGTH_MEASURE(0.01),#418,
'DISTANCE_ACCURACY_VALUE',
'Maximum model space distance between geometric entities at asserted c
onnectivities');
#415=UNCERTAINTY_MEASURE_WITH_UNIT(LENGTH_MEASURE(0.01),#418,
'DISTANCE_ACCURACY_VALUE',
'Maximum model space distance between geometric entities at asserted c
onnectivities');
#416=(
GEOMETRIC_REPRESENTATION_CONTEXT(3)
GLOBAL_UNCERTAINTY_ASSIGNED_CONTEXT((#414))
GLOBAL_UNIT_ASSIGNED_CONTEXT((#418,#420,#421))
REPRESENTATION_CONTEXT('','3D')
);
#417=(
GEOMETRIC_REPRESENTATION_CONTEXT(3)
GLOBAL_UNCERTAINTY_ASSIGNED_CONTEXT((#415))
GLOBAL_UNIT_ASSIGNED_CONTEXT((#418,#420,#421))
REPRESENTATION_CONTEXT('','3D')
);
#418=(
LENGTH_UNIT()
NAMED_UNIT(*)
SI_UNIT(.MILLI.,.METRE.)
);
#419=(
LENGTH_UNIT()
NAMED_UNIT(*)
SI_UNIT($,.METRE.)
);
#420=(
NAMED_UNIT(*)
PLANE_ANGLE_UNIT()
SI_UNIT($,.RADIAN.)
);
#421=(
NAMED_UNIT(*)
SI_UNIT($,.STERADIAN.)
SOLID_ANGLE_UNIT()
);
#422=SHAPE_DEFINITION_REPRESENTATION(#423,#424);
#423=PRODUCT_DEFINITION_SHAPE('',$,#426);
#424=SHAPE_REPRESENTATION('',(#208),#416);
#425=PRODUCT_DEFINITION_CONTEXT('part definition',#430,'design');
#426=PRODUCT_DEFINITION('AIR SHOCKS STOPPER PART2',
'AIR SHOCKS STOPPER PART2 v1',#427,#425);
#427=PRODUCT_DEFINITION_FORMATION('',$,#432);
#428=PRODUCT_RELATED_PRODUCT_CATEGORY('AIR SHOCKS STOPPER PART2 v1',
'AIR SHOCKS STOPPER PART2 v1',(#432));
#429=APPLICATION_PROTOCOL_DEFINITION('international standard',
'automotive_design',2009,#430);
#430=APPLICATION_CONTEXT(
'Core Data for Automotive Mechanical Design Process');
#431=PRODUCT_CONTEXT('part definition',#430,'mechanical');
#432=PRODUCT('AIR SHOCKS STOPPER PART2','AIR SHOCKS STOPPER PART2 v1',$,
(#431));
#433=PRESENTATION_STYLE_ASSIGNMENT((#434));
#434=SURFACE_STYLE_USAGE(.BOTH.,#435);
#435=SURFACE_SIDE_STYLE('',(#436));
#436=SURFACE_STYLE_FILL_AREA(#437);
#437=FILL_AREA_STYLE('Aluminum - Satin',(#438));
#438=FILL_AREA_STYLE_COLOUR('Aluminum - Satin',#439);
#439=COLOUR_RGB('Aluminum - Satin',0.96078431372549,0.96078431372549,0.964705882352941);
ENDSEC;
END-ISO-10303-21;
