ISO-10303-21;
HEADER;
FILE_DESCRIPTION (( 'STEP AP214' ),
    '1' );
FILE_NAME ('Entretoise.STEP',
    '2023-01-09T11:57:18',
    ( '' ),
    ( '' ),
    'SwSTEP 2.0',
    'SolidWorks 2019',
    '' );
FILE_SCHEMA (( 'AUTOMOTIVE_DESIGN' ));
ENDSEC;

DATA;
#1 = ADVANCED_FACE ( 'NONE', ( #87 ), #72, .T. ) ;
#2 = DIRECTION ( 'NONE',  ( 0.000000000000000000, 0.000000000000000000, -1.000000000000000000 ) ) ;
#3 = ORIENTED_EDGE ( 'NONE', *, *, #52, .F. ) ;
#4 = UNCERTAINTY_MEASURE_WITH_UNIT (LENGTH_MEASURE( 1.000000000000000082E-05 ), #154, 'distance_accuracy_value', 'NONE');
#5 = VERTEX_POINT ( 'NONE', #151 ) ;
#6 = AXIS2_PLACEMENT_3D ( 'NONE', #51, #39, #183 ) ;
#7 = SURFACE_STYLE_FILL_AREA ( #192 ) ;
#8 = AXIS2_PLACEMENT_3D ( 'NONE', #34, #100, #194 ) ;
#9 = SURFACE_STYLE_USAGE ( .BOTH. , #61 ) ;
#10 = MANIFOLD_SOLID_BREP ( 'Boss.-Extru.1', #157 ) ;
#11 = DIRECTION ( 'NONE',  ( -0.000000000000000000, -1.000000000000000000, -0.000000000000000000 ) ) ;
#12 = CARTESIAN_POINT ( 'NONE',  ( 0.000000000000000000, 0.000000000000000000, 0.000000000000000000 ) ) ;
#13 = COLOUR_RGB ( '',0.7725490196078431682, 0.7725490196078431682, 0.7725490196078431682 ) ;
#14 = CYLINDRICAL_SURFACE ( 'NONE', #196, 11.00000000000000178 ) ;
#15 = COLOUR_RGB ( '',0.7725490196078431682, 0.7725490196078431682, 0.7725490196078431682 ) ;
#16 = UNCERTAINTY_MEASURE_WITH_UNIT (LENGTH_MEASURE( 1.000000000000000082E-05 ), #112, 'distance_accuracy_value', 'NONE');
#17 = SURFACE_STYLE_USAGE ( .BOTH. , #38 ) ;
#18 = DIRECTION ( 'NONE',  ( -0.000000000000000000, -1.000000000000000000, -0.000000000000000000 ) ) ;
#19 = EDGE_CURVE ( 'NONE', #56, #55, #118, .T. ) ;
#20 = ORIENTED_EDGE ( 'NONE', *, *, #30, .T. ) ;
#21 =( NAMED_UNIT ( * ) PLANE_ANGLE_UNIT ( ) SI_UNIT ( $, .RADIAN. ) );
#22 = ORIENTED_EDGE ( 'NONE', *, *, #188, .T. ) ;
#23 = ORIENTED_EDGE ( 'NONE', *, *, #214, .T. ) ;
#24 = ORIENTED_EDGE ( 'NONE', *, *, #62, .F. ) ;
#25 = DIRECTION ( 'NONE',  ( 1.000000000000000000, 0.000000000000000000, 0.000000000000000000 ) ) ;
#26 = ORIENTED_EDGE ( 'NONE', *, *, #188, .F. ) ;
#27 = AXIS2_PLACEMENT_3D ( 'NONE', #167, #212, #104 ) ;
#28 =( NAMED_UNIT ( * ) PLANE_ANGLE_UNIT ( ) SI_UNIT ( $, .RADIAN. ) );
#29 = PRODUCT_DEFINITION_SHAPE ( 'NONE', 'NONE',  #204 ) ;
#30 = EDGE_CURVE ( 'NONE', #198, #145, #211, .T. ) ;
#31 = AXIS2_PLACEMENT_3D ( 'NONE', #12, #117, #181 ) ;
#32 = EDGE_CURVE ( 'NONE', #145, #198, #122, .T. ) ;
#33 = DIRECTION ( 'NONE',  ( 0.000000000000000000, 0.000000000000000000, 1.000000000000000000 ) ) ;
#34 = CARTESIAN_POINT ( 'NONE',  ( 0.000000000000000000, 93.00000000000000000, 0.000000000000000000 ) ) ;
#35 = PRODUCT_DEFINITION_CONTEXT ( 'detailed design', #64, 'design' ) ;
#36 = PLANE ( 'NONE',  #49 ) ;
#37 = FACE_OUTER_BOUND ( 'NONE', #201, .T. ) ;
#38 = SURFACE_SIDE_STYLE ('',( #65 ) ) ;
#39 = DIRECTION ( 'NONE',  ( 0.000000000000000000, 1.000000000000000000, 0.000000000000000000 ) ) ;
#40 = ORIENTED_EDGE ( 'NONE', *, *, #32, .T. ) ;
#41 = EDGE_LOOP ( 'NONE', ( #23, #174 ) ) ;
#42 = EDGE_LOOP ( 'NONE', ( #162, #130 ) ) ;
#43 = CARTESIAN_POINT ( 'NONE',  ( 0.000000000000000000, 93.00000000000000000, -11.00000000000000178 ) ) ;
#44 = CARTESIAN_POINT ( 'NONE',  ( 0.000000000000000000, 0.000000000000000000, 0.000000000000000000 ) ) ;
#45 = CIRCLE ( 'NONE', #6, 11.00000000000000178 ) ;
#46 = CARTESIAN_POINT ( 'NONE',  ( 0.000000000000000000, 0.000000000000000000, 0.000000000000000000 ) ) ;
#47 = CARTESIAN_POINT ( 'NONE',  ( 0.000000000000000000, 0.000000000000000000, -12.50000000000000000 ) ) ;
#48 = FACE_BOUND ( 'NONE', #202, .T. ) ;
#49 = AXIS2_PLACEMENT_3D ( 'NONE', #124, #81, #66 ) ;
#50 = CARTESIAN_POINT ( 'NONE',  ( 1.347111479062088405E-15, 0.000000000000000000, 11.00000000000000178 ) ) ;
#51 = CARTESIAN_POINT ( 'NONE',  ( 0.000000000000000000, 0.000000000000000000, 0.000000000000000000 ) ) ;
#52 = EDGE_CURVE ( 'NONE', #159, #5, #115, .T. ) ;
#53 = PRODUCT_CONTEXT ( 'NONE', #70, 'mechanical' ) ;
#54 = VERTEX_POINT ( 'NONE', #203 ) ;
#55 = VERTEX_POINT ( 'NONE', #133 ) ;
#56 = VERTEX_POINT ( 'NONE', #99 ) ;
#57 = ORIENTED_EDGE ( 'NONE', *, *, #62, .T. ) ;
#58 =( NAMED_UNIT ( * ) SI_UNIT ( $, .STERADIAN. ) SOLID_ANGLE_UNIT ( ) );
#59 = PRESENTATION_LAYER_ASSIGNMENT (  '', '', ( #83 ) ) ;
#60 = VECTOR ( 'NONE', #78, 1000.000000000000000 ) ;
#61 = SURFACE_SIDE_STYLE ('',( #7 ) ) ;
#62 = EDGE_CURVE ( 'NONE', #54, #159, #137, .T. ) ;
#63 = FACE_OUTER_BOUND ( 'NONE', #178, .T. ) ;
#64 = APPLICATION_CONTEXT ( 'automotive_design' ) ;
#65 = SURFACE_STYLE_FILL_AREA ( #170 ) ;
#66 = DIRECTION ( 'NONE',  ( 0.000000000000000000, -0.000000000000000000, 1.000000000000000000 ) ) ;
#67 = EDGE_CURVE ( 'NONE', #158, #5, #84, .T. ) ;
#68 = AXIS2_PLACEMENT_3D ( 'NONE', #108, #88, #2 ) ;
#69 = DIRECTION ( 'NONE',  ( 0.000000000000000000, 0.000000000000000000, -1.000000000000000000 ) ) ;
#70 = APPLICATION_CONTEXT ( 'automotive_design' ) ;
#71 = LINE ( 'NONE', #155, #94 ) ;
#72 = CYLINDRICAL_SURFACE ( 'NONE', #68, 12.50000000000000000 ) ;
#73 = CIRCLE ( 'NONE', #199, 11.00000000000000178 ) ;
#74 =( GEOMETRIC_REPRESENTATION_CONTEXT ( 3 ) GLOBAL_UNCERTAINTY_ASSIGNED_CONTEXT ( ( #4 ) ) GLOBAL_UNIT_ASSIGNED_CONTEXT ( ( #154, #21, #200 ) ) REPRESENTATION_CONTEXT ( 'NONE', 'WORKASPACE' ) );
#75 = ORIENTED_EDGE ( 'NONE', *, *, #52, .T. ) ;
#76 = DIRECTION ( 'NONE',  ( 0.000000000000000000, 0.000000000000000000, 1.000000000000000000 ) ) ;
#77 = ORIENTED_EDGE ( 'NONE', *, *, #175, .F. ) ;
#78 = DIRECTION ( 'NONE',  ( -0.000000000000000000, -1.000000000000000000, -0.000000000000000000 ) ) ;
#79 = DIRECTION ( 'NONE',  ( 0.000000000000000000, 1.000000000000000000, 0.000000000000000000 ) ) ;
#80 = DIRECTION ( 'NONE',  ( 0.000000000000000000, 0.000000000000000000, 1.000000000000000000 ) ) ;
#81 = DIRECTION ( 'NONE',  ( 0.000000000000000000, 1.000000000000000000, 0.000000000000000000 ) ) ;
#82 = PRESENTATION_STYLE_ASSIGNMENT (( #17 ) ) ;
#83 = STYLED_ITEM ( 'NONE', ( #116 ), #10 ) ;
#84 = CIRCLE ( 'NONE', #31, 11.00000000000000178 ) ;
#85 = CARTESIAN_POINT ( 'NONE',  ( 0.000000000000000000, 93.00000000000000000, -12.50000000000000000 ) ) ;
#86 = CARTESIAN_POINT ( 'NONE',  ( 0.000000000000000000, 93.00000000000000000, 0.000000000000000000 ) ) ;
#87 = FACE_OUTER_BOUND ( 'NONE', #147, .T. ) ;
#88 = DIRECTION ( 'NONE',  ( -0.000000000000000000, -1.000000000000000000, -0.000000000000000000 ) ) ;
#89 = EDGE_CURVE ( 'NONE', #159, #54, #73, .T. ) ;
#90 = EDGE_LOOP ( 'NONE', ( #131, #111 ) ) ;
#91 = EDGE_LOOP ( 'NONE', ( #26, #57, #75, #149 ) ) ;
#92 = APPLICATION_PROTOCOL_DEFINITION ( 'draft international standard', 'automotive_design', 1998, #64 ) ;
#93 = ORIENTED_EDGE ( 'NONE', *, *, #193, .T. ) ;
#94 = VECTOR ( 'NONE', #209, 1000.000000000000000 ) ;
#95 = DIRECTION ( 'NONE',  ( 0.000000000000000000, 1.000000000000000000, 0.000000000000000000 ) ) ;
#96 = FACE_OUTER_BOUND ( 'NONE', #91, .T. ) ;
#97 = UNCERTAINTY_MEASURE_WITH_UNIT (LENGTH_MEASURE( 1.000000000000000082E-05 ), #123, 'distance_accuracy_value', 'NONE');
#98 = CYLINDRICAL_SURFACE ( 'NONE', #134, 11.00000000000000178 ) ;
#99 = CARTESIAN_POINT ( 'NONE',  ( 1.530808498934191127E-15, 93.00000000000000000, 12.50000000000000000 ) ) ;
#100 = DIRECTION ( 'NONE',  ( -0.000000000000000000, -1.000000000000000000, -0.000000000000000000 ) ) ;
#101 = CARTESIAN_POINT ( 'NONE',  ( 1.530808498934191127E-15, 0.000000000000000000, 12.50000000000000000 ) ) ;
#102 = AXIS2_PLACEMENT_3D ( 'NONE', #138, #166, #80 ) ;
#103 = CARTESIAN_POINT ( 'NONE',  ( 1.347111479062088405E-15, 93.00000000000000000, 11.00000000000000178 ) ) ;
#104 = DIRECTION ( 'NONE',  ( 0.000000000000000000, 0.000000000000000000, 1.000000000000000000 ) ) ;
#105 = LINE ( 'NONE', #103, #161 ) ;
#106 = AXIS2_PLACEMENT_3D ( 'NONE', #136, #205, #33 ) ;
#107 = DIRECTION ( 'NONE',  ( 0.000000000000000000, 1.000000000000000000, 0.000000000000000000 ) ) ;
#108 = CARTESIAN_POINT ( 'NONE',  ( 0.000000000000000000, 93.00000000000000000, 0.000000000000000000 ) ) ;
#109 = MECHANICAL_DESIGN_GEOMETRIC_PRESENTATION_REPRESENTATION (  '', ( #176 ), #74 ) ;
#110 = ADVANCED_FACE ( 'NONE', ( #96 ), #98, .F. ) ;
#111 = ORIENTED_EDGE ( 'NONE', *, *, #67, .T. ) ;
#112 =( LENGTH_UNIT ( ) NAMED_UNIT ( * ) SI_UNIT ( .MILLI., .METRE. ) );
#113 =( GEOMETRIC_REPRESENTATION_CONTEXT ( 3 ) GLOBAL_UNCERTAINTY_ASSIGNED_CONTEXT ( ( #97 ) ) GLOBAL_UNIT_ASSIGNED_CONTEXT ( ( #123, #142, #125 ) ) REPRESENTATION_CONTEXT ( 'NONE', 'WORKASPACE' ) );
#114 = ADVANCED_BREP_SHAPE_REPRESENTATION ( 'Entretoise', ( #10, #206 ), #113 ) ;
#115 = LINE ( 'NONE', #43, #60 ) ;
#116 = PRESENTATION_STYLE_ASSIGNMENT (( #9 ) ) ;
#117 = DIRECTION ( 'NONE',  ( 0.000000000000000000, 1.000000000000000000, 0.000000000000000000 ) ) ;
#118 = CIRCLE ( 'NONE', #106, 12.50000000000000000 ) ;
#119 = AXIS2_PLACEMENT_3D ( 'NONE', #86, #107, #185 ) ;
#120 = CYLINDRICAL_SURFACE ( 'NONE', #8, 12.50000000000000000 ) ;
#121 = ADVANCED_FACE ( 'NONE', ( #63 ), #120, .T. ) ;
#122 = CIRCLE ( 'NONE', #144, 12.50000000000000000 ) ;
#123 =( LENGTH_UNIT ( ) NAMED_UNIT ( * ) SI_UNIT ( .MILLI., .METRE. ) );
#124 = CARTESIAN_POINT ( 'NONE',  ( 0.000000000000000000, 0.000000000000000000, 0.000000000000000000 ) ) ;
#125 =( NAMED_UNIT ( * ) SI_UNIT ( $, .STERADIAN. ) SOLID_ANGLE_UNIT ( ) );
#126 = CIRCLE ( 'NONE', #27, 12.50000000000000000 ) ;
#127 = ORIENTED_EDGE ( 'NONE', *, *, #197, .T. ) ;
#128 = ORIENTED_EDGE ( 'NONE', *, *, #89, .F. ) ;
#129 = PRODUCT ( 'Entretoise', 'Entretoise', '', ( #53 ) ) ;
#130 = ORIENTED_EDGE ( 'NONE', *, *, #32, .F. ) ;
#131 = ORIENTED_EDGE ( 'NONE', *, *, #175, .T. ) ;
#132 = ADVANCED_FACE ( 'NONE', ( #37 ), #14, .F. ) ;
#133 = CARTESIAN_POINT ( 'NONE',  ( 0.000000000000000000, 93.00000000000000000, -12.50000000000000000 ) ) ;
#134 = AXIS2_PLACEMENT_3D ( 'NONE', #150, #11, #208 ) ;
#135 = DIRECTION ( 'NONE',  ( 0.000000000000000000, 0.000000000000000000, 1.000000000000000000 ) ) ;
#136 = CARTESIAN_POINT ( 'NONE',  ( 0.000000000000000000, 93.00000000000000000, 0.000000000000000000 ) ) ;
#137 = CIRCLE ( 'NONE', #102, 11.00000000000000178 ) ;
#138 = CARTESIAN_POINT ( 'NONE',  ( 0.000000000000000000, 93.00000000000000000, 0.000000000000000000 ) ) ;
#139 = FACE_OUTER_BOUND ( 'NONE', #42, .T. ) ;
#140 = LINE ( 'NONE', #85, #186 ) ;
#141 = FACE_OUTER_BOUND ( 'NONE', #41, .T. ) ;
#142 =( NAMED_UNIT ( * ) PLANE_ANGLE_UNIT ( ) SI_UNIT ( $, .RADIAN. ) );
#143 = MECHANICAL_DESIGN_GEOMETRIC_PRESENTATION_REPRESENTATION (  '', ( #83 ), #191 ) ;
#144 = AXIS2_PLACEMENT_3D ( 'NONE', #44, #95, #135 ) ;
#145 = VERTEX_POINT ( 'NONE', #101 ) ;
#146 = ORIENTED_EDGE ( 'NONE', *, *, #19, .F. ) ;
#147 = EDGE_LOOP ( 'NONE', ( #146, #127, #40, #148 ) ) ;
#148 = ORIENTED_EDGE ( 'NONE', *, *, #193, .F. ) ;
#149 = ORIENTED_EDGE ( 'NONE', *, *, #67, .F. ) ;
#150 = CARTESIAN_POINT ( 'NONE',  ( 0.000000000000000000, 93.00000000000000000, 0.000000000000000000 ) ) ;
#151 = CARTESIAN_POINT ( 'NONE',  ( 0.000000000000000000, 0.000000000000000000, -11.00000000000000178 ) ) ;
#152 = FILL_AREA_STYLE_COLOUR ( '', #15 ) ;
#153 = CARTESIAN_POINT ( 'NONE',  ( 0.000000000000000000, 93.00000000000000000, 0.000000000000000000 ) ) ;
#154 =( LENGTH_UNIT ( ) NAMED_UNIT ( * ) SI_UNIT ( .MILLI., .METRE. ) );
#155 = CARTESIAN_POINT ( 'NONE',  ( 1.530808498934191127E-15, 93.00000000000000000, 12.50000000000000000 ) ) ;
#156 = ADVANCED_FACE ( 'NONE', ( #141, #48 ), #210, .T. ) ;
#157 = CLOSED_SHELL ( 'NONE', ( #132, #1, #156, #172, #121, #110 ) ) ;
#158 = VERTEX_POINT ( 'NONE', #50 ) ;
#159 = VERTEX_POINT ( 'NONE', #195 ) ;
#160 = SHAPE_DEFINITION_REPRESENTATION ( #29, #114 ) ;
#161 = VECTOR ( 'NONE', #18, 1000.000000000000000 ) ;
#162 = ORIENTED_EDGE ( 'NONE', *, *, #30, .F. ) ;
#163 = DIRECTION ( 'NONE',  ( 0.000000000000000000, 0.000000000000000000, 1.000000000000000000 ) ) ;
#164 = PRODUCT_DEFINITION_FORMATION_WITH_SPECIFIED_SOURCE ( 'ANY', '', #129, .NOT_KNOWN. ) ;
#165 = CARTESIAN_POINT ( 'NONE',  ( 0.000000000000000000, 93.00000000000000000, 0.000000000000000000 ) ) ;
#166 = DIRECTION ( 'NONE',  ( 0.000000000000000000, 1.000000000000000000, 0.000000000000000000 ) ) ;
#167 = CARTESIAN_POINT ( 'NONE',  ( 0.000000000000000000, 93.00000000000000000, 0.000000000000000000 ) ) ;
#168 = AXIS2_PLACEMENT_3D ( 'NONE', #46, #79, #163 ) ;
#169 = DIRECTION ( 'NONE',  ( -0.000000000000000000, -1.000000000000000000, -0.000000000000000000 ) ) ;
#170 = FILL_AREA_STYLE ('',( #152 ) ) ;
#171 = FACE_BOUND ( 'NONE', #90, .T. ) ;
#172 = ADVANCED_FACE ( 'NONE', ( #139, #171 ), #36, .F. ) ;
#173 = CARTESIAN_POINT ( 'NONE',  ( 0.000000000000000000, 0.000000000000000000, 0.000000000000000000 ) ) ;
#174 = ORIENTED_EDGE ( 'NONE', *, *, #19, .T. ) ;
#175 = EDGE_CURVE ( 'NONE', #5, #158, #45, .T. ) ;
#176 = STYLED_ITEM ( 'NONE', ( #82 ), #114 ) ;
#177 = ORIENTED_EDGE ( 'NONE', *, *, #89, .T. ) ;
#178 = EDGE_LOOP ( 'NONE', ( #187, #189, #93, #20 ) ) ;
#179 = DIRECTION ( 'NONE',  ( 0.000000000000000000, 0.000000000000000000, 1.000000000000000000 ) ) ;
#180 = DIRECTION ( 'NONE',  ( 0.000000000000000000, 1.000000000000000000, 0.000000000000000000 ) ) ;
#181 = DIRECTION ( 'NONE',  ( 0.000000000000000000, 0.000000000000000000, 1.000000000000000000 ) ) ;
#182 = PRESENTATION_LAYER_ASSIGNMENT (  '', '', ( #176 ) ) ;
#183 = DIRECTION ( 'NONE',  ( 0.000000000000000000, 0.000000000000000000, 1.000000000000000000 ) ) ;
#184 = APPLICATION_PROTOCOL_DEFINITION ( 'draft international standard', 'automotive_design', 1998, #70 ) ;
#185 = DIRECTION ( 'NONE',  ( 0.000000000000000000, -0.000000000000000000, 1.000000000000000000 ) ) ;
#186 = VECTOR ( 'NONE', #169, 1000.000000000000000 ) ;
#187 = ORIENTED_EDGE ( 'NONE', *, *, #197, .F. ) ;
#188 = EDGE_CURVE ( 'NONE', #54, #158, #105, .T. ) ;
#189 = ORIENTED_EDGE ( 'NONE', *, *, #214, .F. ) ;
#190 = PRODUCT_RELATED_PRODUCT_CATEGORY ( 'part', '', ( #129 ) ) ;
#191 =( GEOMETRIC_REPRESENTATION_CONTEXT ( 3 ) GLOBAL_UNCERTAINTY_ASSIGNED_CONTEXT ( ( #16 ) ) GLOBAL_UNIT_ASSIGNED_CONTEXT ( ( #112, #28, #58 ) ) REPRESENTATION_CONTEXT ( 'NONE', 'WORKASPACE' ) );
#192 = FILL_AREA_STYLE ('',( #207 ) ) ;
#193 = EDGE_CURVE ( 'NONE', #55, #198, #140, .T. ) ;
#194 = DIRECTION ( 'NONE',  ( 0.000000000000000000, 0.000000000000000000, -1.000000000000000000 ) ) ;
#195 = CARTESIAN_POINT ( 'NONE',  ( 0.000000000000000000, 93.00000000000000000, -11.00000000000000178 ) ) ;
#196 = AXIS2_PLACEMENT_3D ( 'NONE', #153, #213, #69 ) ;
#197 = EDGE_CURVE ( 'NONE', #56, #145, #71, .T. ) ;
#198 = VERTEX_POINT ( 'NONE', #47 ) ;
#199 = AXIS2_PLACEMENT_3D ( 'NONE', #165, #180, #179 ) ;
#200 =( NAMED_UNIT ( * ) SI_UNIT ( $, .STERADIAN. ) SOLID_ANGLE_UNIT ( ) );
#201 = EDGE_LOOP ( 'NONE', ( #177, #22, #77, #3 ) ) ;
#202 = EDGE_LOOP ( 'NONE', ( #128, #24 ) ) ;
#203 = CARTESIAN_POINT ( 'NONE',  ( 1.347111479062088405E-15, 93.00000000000000000, 11.00000000000000178 ) ) ;
#204 = PRODUCT_DEFINITION ( 'UNKNOWN', '', #164, #35 ) ;
#205 = DIRECTION ( 'NONE',  ( 0.000000000000000000, 1.000000000000000000, 0.000000000000000000 ) ) ;
#206 = AXIS2_PLACEMENT_3D ( 'NONE', #173, #76, #25 ) ;
#207 = FILL_AREA_STYLE_COLOUR ( '', #13 ) ;
#208 = DIRECTION ( 'NONE',  ( 0.000000000000000000, 0.000000000000000000, -1.000000000000000000 ) ) ;
#209 = DIRECTION ( 'NONE',  ( -0.000000000000000000, -1.000000000000000000, -0.000000000000000000 ) ) ;
#210 = PLANE ( 'NONE',  #119 ) ;
#211 = CIRCLE ( 'NONE', #168, 12.50000000000000000 ) ;
#212 = DIRECTION ( 'NONE',  ( 0.000000000000000000, 1.000000000000000000, 0.000000000000000000 ) ) ;
#213 = DIRECTION ( 'NONE',  ( -0.000000000000000000, -1.000000000000000000, -0.000000000000000000 ) ) ;
#214 = EDGE_CURVE ( 'NONE', #55, #56, #126, .T. ) ;
ENDSEC;
END-ISO-10303-21;
