ISO-10303-21;
HEADER;
/* Generated by software containing ST-Developer
 * from STEP Tools, Inc. (www.steptools.com) 
 */

FILE_DESCRIPTION(
/* description */ (''),
/* implementation_level */ '2;1');

FILE_NAME(
/* name */ 'RSp_ecrou.step',
/* time_stamp */ '2023-01-13T18:09:14+01:00',
/* author */ (''),
/* organization */ (''),
/* preprocessor_version */ 'ST-DEVELOPER v19.2',
/* originating_system */ 'Autodesk Translation Framework v11.17.0.187',

/* authorisation */ '');

FILE_SCHEMA (('AUTOMOTIVE_DESIGN { 1 0 10303 214 3 1 1 }'));
ENDSEC;

DATA;
#10=MECHANICAL_DESIGN_GEOMETRIC_PRESENTATION_REPRESENTATION('',(#13),#369);
#11=SHAPE_REPRESENTATION_RELATIONSHIP('SRR','None',#376,#12);
#12=ADVANCED_BREP_SHAPE_REPRESENTATION('',(#14),#368);
#13=STYLED_ITEM('',(#386),#14);
#14=MANIFOLD_SOLID_BREP('Body1',#215);
#15=FACE_BOUND('',#84,.T.);
#16=FACE_BOUND('',#86,.T.);
#17=FACE_BOUND('',#95,.T.);
#18=PLANE('',#236);
#19=PLANE('',#237);
#20=PLANE('',#241);
#21=PLANE('',#242);
#22=PLANE('',#243);
#23=PLANE('',#244);
#24=PLANE('',#245);
#25=PLANE('',#246);
#26=PLANE('',#247);
#27=LINE('',#320,#47);
#28=LINE('',#324,#48);
#29=LINE('',#326,#49);
#30=LINE('',#328,#50);
#31=LINE('',#330,#51);
#32=LINE('',#332,#52);
#33=LINE('',#333,#53);
#34=LINE('',#339,#54);
#35=LINE('',#344,#55);
#36=LINE('',#345,#56);
#37=LINE('',#346,#57);
#38=LINE('',#349,#58);
#39=LINE('',#350,#59);
#40=LINE('',#353,#60);
#41=LINE('',#354,#61);
#42=LINE('',#357,#62);
#43=LINE('',#358,#63);
#44=LINE('',#361,#64);
#45=LINE('',#362,#65);
#46=LINE('',#364,#66);
#47=VECTOR('',#264,3.25);
#48=VECTOR('',#267,10.);
#49=VECTOR('',#268,10.);
#50=VECTOR('',#269,10.);
#51=VECTOR('',#270,10.);
#52=VECTOR('',#271,10.);
#53=VECTOR('',#272,10.);
#54=VECTOR('',#279,2.00000002980232);
#55=VECTOR('',#284,10.);
#56=VECTOR('',#285,10.);
#57=VECTOR('',#286,10.);
#58=VECTOR('',#289,10.);
#59=VECTOR('',#290,10.);
#60=VECTOR('',#293,10.);
#61=VECTOR('',#294,10.);
#62=VECTOR('',#297,10.);
#63=VECTOR('',#298,10.);
#64=VECTOR('',#301,10.);
#65=VECTOR('',#302,10.);
#66=VECTOR('',#305,10.);
#67=CYLINDRICAL_SURFACE('',#234,3.25);
#68=CYLINDRICAL_SURFACE('',#239,1.76435);
#69=FACE_OUTER_BOUND('',#81,.T.);
#70=FACE_OUTER_BOUND('',#82,.T.);
#71=FACE_OUTER_BOUND('',#83,.T.);
#72=FACE_OUTER_BOUND('',#85,.T.);
#73=FACE_OUTER_BOUND('',#87,.T.);
#74=FACE_OUTER_BOUND('',#88,.T.);
#75=FACE_OUTER_BOUND('',#89,.T.);
#76=FACE_OUTER_BOUND('',#90,.T.);
#77=FACE_OUTER_BOUND('',#91,.T.);
#78=FACE_OUTER_BOUND('',#92,.T.);
#79=FACE_OUTER_BOUND('',#93,.T.);
#80=FACE_OUTER_BOUND('',#94,.T.);
#81=EDGE_LOOP('',(#148,#149,#150,#151,#152));
#82=EDGE_LOOP('',(#153,#154,#155,#156,#157));
#83=EDGE_LOOP('',(#158,#159,#160,#161,#162,#163));
#84=EDGE_LOOP('',(#164));
#85=EDGE_LOOP('',(#165));
#86=EDGE_LOOP('',(#166));
#87=EDGE_LOOP('',(#167,#168,#169,#170));
#88=EDGE_LOOP('',(#171,#172,#173,#174));
#89=EDGE_LOOP('',(#175,#176,#177,#178));
#90=EDGE_LOOP('',(#179,#180,#181,#182));
#91=EDGE_LOOP('',(#183,#184,#185,#186));
#92=EDGE_LOOP('',(#187,#188,#189,#190));
#93=EDGE_LOOP('',(#191,#192,#193,#194));
#94=EDGE_LOOP('',(#195,#196,#197,#198,#199,#200));
#95=EDGE_LOOP('',(#201));
#96=CIRCLE('',#230,3.25);
#97=CIRCLE('',#231,0.3);
#98=CIRCLE('',#232,3.55);
#99=CIRCLE('',#233,3.25);
#100=CIRCLE('',#235,3.25);
#101=CIRCLE('',#238,1.76435);
#102=CIRCLE('',#240,1.76435);
#103=VERTEX_POINT('',#310);
#104=VERTEX_POINT('',#311);
#105=VERTEX_POINT('',#313);
#106=VERTEX_POINT('',#318);
#107=VERTEX_POINT('',#322);
#108=VERTEX_POINT('',#323);
#109=VERTEX_POINT('',#325);
#110=VERTEX_POINT('',#327);
#111=VERTEX_POINT('',#329);
#112=VERTEX_POINT('',#331);
#113=VERTEX_POINT('',#335);
#114=VERTEX_POINT('',#338);
#115=VERTEX_POINT('',#342);
#116=VERTEX_POINT('',#343);
#117=VERTEX_POINT('',#348);
#118=VERTEX_POINT('',#352);
#119=VERTEX_POINT('',#356);
#120=VERTEX_POINT('',#360);
#121=EDGE_CURVE('',#103,#104,#96,.T.);
#122=EDGE_CURVE('',#104,#105,#97,.T.);
#123=EDGE_CURVE('',#105,#105,#98,.T.);
#124=EDGE_CURVE('',#104,#103,#99,.T.);
#125=EDGE_CURVE('',#106,#106,#100,.T.);
#126=EDGE_CURVE('',#106,#103,#27,.T.);
#127=EDGE_CURVE('',#107,#108,#28,.T.);
#128=EDGE_CURVE('',#108,#109,#29,.T.);
#129=EDGE_CURVE('',#109,#110,#30,.T.);
#130=EDGE_CURVE('',#110,#111,#31,.T.);
#131=EDGE_CURVE('',#111,#112,#32,.T.);
#132=EDGE_CURVE('',#112,#107,#33,.T.);
#133=EDGE_CURVE('',#113,#113,#101,.T.);
#134=EDGE_CURVE('',#113,#114,#34,.T.);
#135=EDGE_CURVE('',#114,#114,#102,.F.);
#136=EDGE_CURVE('',#115,#116,#35,.T.);
#137=EDGE_CURVE('',#116,#107,#36,.T.);
#138=EDGE_CURVE('',#115,#112,#37,.T.);
#139=EDGE_CURVE('',#117,#115,#38,.T.);
#140=EDGE_CURVE('',#117,#111,#39,.T.);
#141=EDGE_CURVE('',#118,#117,#40,.T.);
#142=EDGE_CURVE('',#118,#110,#41,.T.);
#143=EDGE_CURVE('',#119,#118,#42,.T.);
#144=EDGE_CURVE('',#119,#109,#43,.T.);
#145=EDGE_CURVE('',#120,#119,#44,.T.);
#146=EDGE_CURVE('',#120,#108,#45,.T.);
#147=EDGE_CURVE('',#116,#120,#46,.T.);
#148=ORIENTED_EDGE('',*,*,#121,.T.);
#149=ORIENTED_EDGE('',*,*,#122,.T.);
#150=ORIENTED_EDGE('',*,*,#123,.T.);
#151=ORIENTED_EDGE('',*,*,#122,.F.);
#152=ORIENTED_EDGE('',*,*,#124,.T.);
#153=ORIENTED_EDGE('',*,*,#125,.F.);
#154=ORIENTED_EDGE('',*,*,#126,.T.);
#155=ORIENTED_EDGE('',*,*,#124,.F.);
#156=ORIENTED_EDGE('',*,*,#121,.F.);
#157=ORIENTED_EDGE('',*,*,#126,.F.);
#158=ORIENTED_EDGE('',*,*,#127,.T.);
#159=ORIENTED_EDGE('',*,*,#128,.T.);
#160=ORIENTED_EDGE('',*,*,#129,.T.);
#161=ORIENTED_EDGE('',*,*,#130,.T.);
#162=ORIENTED_EDGE('',*,*,#131,.T.);
#163=ORIENTED_EDGE('',*,*,#132,.T.);
#164=ORIENTED_EDGE('',*,*,#123,.F.);
#165=ORIENTED_EDGE('',*,*,#125,.T.);
#166=ORIENTED_EDGE('',*,*,#133,.T.);
#167=ORIENTED_EDGE('',*,*,#133,.F.);
#168=ORIENTED_EDGE('',*,*,#134,.T.);
#169=ORIENTED_EDGE('',*,*,#135,.F.);
#170=ORIENTED_EDGE('',*,*,#134,.F.);
#171=ORIENTED_EDGE('',*,*,#136,.T.);
#172=ORIENTED_EDGE('',*,*,#137,.T.);
#173=ORIENTED_EDGE('',*,*,#132,.F.);
#174=ORIENTED_EDGE('',*,*,#138,.F.);
#175=ORIENTED_EDGE('',*,*,#139,.T.);
#176=ORIENTED_EDGE('',*,*,#138,.T.);
#177=ORIENTED_EDGE('',*,*,#131,.F.);
#178=ORIENTED_EDGE('',*,*,#140,.F.);
#179=ORIENTED_EDGE('',*,*,#141,.T.);
#180=ORIENTED_EDGE('',*,*,#140,.T.);
#181=ORIENTED_EDGE('',*,*,#130,.F.);
#182=ORIENTED_EDGE('',*,*,#142,.F.);
#183=ORIENTED_EDGE('',*,*,#143,.T.);
#184=ORIENTED_EDGE('',*,*,#142,.T.);
#185=ORIENTED_EDGE('',*,*,#129,.F.);
#186=ORIENTED_EDGE('',*,*,#144,.F.);
#187=ORIENTED_EDGE('',*,*,#145,.T.);
#188=ORIENTED_EDGE('',*,*,#144,.T.);
#189=ORIENTED_EDGE('',*,*,#128,.F.);
#190=ORIENTED_EDGE('',*,*,#146,.F.);
#191=ORIENTED_EDGE('',*,*,#147,.T.);
#192=ORIENTED_EDGE('',*,*,#146,.T.);
#193=ORIENTED_EDGE('',*,*,#127,.F.);
#194=ORIENTED_EDGE('',*,*,#137,.F.);
#195=ORIENTED_EDGE('',*,*,#147,.F.);
#196=ORIENTED_EDGE('',*,*,#136,.F.);
#197=ORIENTED_EDGE('',*,*,#139,.F.);
#198=ORIENTED_EDGE('',*,*,#141,.F.);
#199=ORIENTED_EDGE('',*,*,#143,.F.);
#200=ORIENTED_EDGE('',*,*,#145,.F.);
#201=ORIENTED_EDGE('',*,*,#135,.T.);
#202=TOROIDAL_SURFACE('',#229,3.55,0.3);
#203=ADVANCED_FACE('',(#69),#202,.F.);
#204=ADVANCED_FACE('',(#70),#67,.T.);
#205=ADVANCED_FACE('',(#71,#15),#18,.T.);
#206=ADVANCED_FACE('',(#72,#16),#19,.T.);
#207=ADVANCED_FACE('',(#73),#68,.F.);
#208=ADVANCED_FACE('',(#74),#20,.T.);
#209=ADVANCED_FACE('',(#75),#21,.T.);
#210=ADVANCED_FACE('',(#76),#22,.T.);
#211=ADVANCED_FACE('',(#77),#23,.T.);
#212=ADVANCED_FACE('',(#78),#24,.T.);
#213=ADVANCED_FACE('',(#79),#25,.T.);
#214=ADVANCED_FACE('',(#80,#17),#26,.F.);
#215=CLOSED_SHELL('',(#203,#204,#205,#206,#207,#208,#209,#210,#211,#212,
#213,#214));
#216=DERIVED_UNIT_ELEMENT(#218,1.);
#217=DERIVED_UNIT_ELEMENT(#371,-3.);
#218=(
MASS_UNIT()
NAMED_UNIT(*)
SI_UNIT(.KILO.,.GRAM.)
);
#219=DERIVED_UNIT((#216,#217));
#220=MEASURE_REPRESENTATION_ITEM('density measure',
POSITIVE_RATIO_MEASURE(7850.),#219);
#221=PROPERTY_DEFINITION_REPRESENTATION(#226,#223);
#222=PROPERTY_DEFINITION_REPRESENTATION(#227,#224);
#223=REPRESENTATION('material name',(#225),#368);
#224=REPRESENTATION('density',(#220),#368);
#225=DESCRIPTIVE_REPRESENTATION_ITEM('Steel','Steel');
#226=PROPERTY_DEFINITION('material property','material name',#378);
#227=PROPERTY_DEFINITION('material property','density of part',#378);
#228=AXIS2_PLACEMENT_3D('placement',#308,#248,#249);
#229=AXIS2_PLACEMENT_3D('',#309,#250,#251);
#230=AXIS2_PLACEMENT_3D('',#312,#252,#253);
#231=AXIS2_PLACEMENT_3D('',#314,#254,#255);
#232=AXIS2_PLACEMENT_3D('',#315,#256,#257);
#233=AXIS2_PLACEMENT_3D('',#316,#258,#259);
#234=AXIS2_PLACEMENT_3D('',#317,#260,#261);
#235=AXIS2_PLACEMENT_3D('',#319,#262,#263);
#236=AXIS2_PLACEMENT_3D('',#321,#265,#266);
#237=AXIS2_PLACEMENT_3D('',#334,#273,#274);
#238=AXIS2_PLACEMENT_3D('',#336,#275,#276);
#239=AXIS2_PLACEMENT_3D('',#337,#277,#278);
#240=AXIS2_PLACEMENT_3D('',#340,#280,#281);
#241=AXIS2_PLACEMENT_3D('',#341,#282,#283);
#242=AXIS2_PLACEMENT_3D('',#347,#287,#288);
#243=AXIS2_PLACEMENT_3D('',#351,#291,#292);
#244=AXIS2_PLACEMENT_3D('',#355,#295,#296);
#245=AXIS2_PLACEMENT_3D('',#359,#299,#300);
#246=AXIS2_PLACEMENT_3D('',#363,#303,#304);
#247=AXIS2_PLACEMENT_3D('',#365,#306,#307);
#248=DIRECTION('axis',(0.,0.,1.));
#249=DIRECTION('refdir',(1.,0.,0.));
#250=DIRECTION('center_axis',(0.,0.,-1.));
#251=DIRECTION('ref_axis',(-1.,0.,0.));
#252=DIRECTION('center_axis',(0.,0.,-1.));
#253=DIRECTION('ref_axis',(1.,0.,0.));
#254=DIRECTION('center_axis',(-1.22464679914735E-16,-1.,0.));
#255=DIRECTION('ref_axis',(1.,-1.22464679914735E-16,0.));
#256=DIRECTION('center_axis',(0.,0.,1.));
#257=DIRECTION('ref_axis',(1.,0.,0.));
#258=DIRECTION('center_axis',(0.,0.,-1.));
#259=DIRECTION('ref_axis',(1.,0.,0.));
#260=DIRECTION('center_axis',(0.,0.,1.));
#261=DIRECTION('ref_axis',(1.,0.,0.));
#262=DIRECTION('center_axis',(0.,0.,1.));
#263=DIRECTION('ref_axis',(1.,0.,0.));
#264=DIRECTION('',(0.,0.,-1.));
#265=DIRECTION('center_axis',(0.,0.,1.));
#266=DIRECTION('ref_axis',(1.,0.,0.));
#267=DIRECTION('',(-0.866025403784438,-0.5,0.));
#268=DIRECTION('',(4.12063432796478E-16,-1.,0.));
#269=DIRECTION('',(0.866025403784439,-0.5,0.));
#270=DIRECTION('',(0.866025403784439,0.5,0.));
#271=DIRECTION('',(0.,1.,0.));
#272=DIRECTION('',(-0.866025403784439,0.5,0.));
#273=DIRECTION('center_axis',(0.,0.,1.));
#274=DIRECTION('ref_axis',(1.,0.,0.));
#275=DIRECTION('center_axis',(0.,0.,-1.));
#276=DIRECTION('ref_axis',(-1.,0.,0.));
#277=DIRECTION('center_axis',(0.,0.,-1.));
#278=DIRECTION('ref_axis',(-1.,0.,0.));
#279=DIRECTION('',(0.,0.,-1.));
#280=DIRECTION('center_axis',(0.,0.,-1.));
#281=DIRECTION('ref_axis',(-1.,0.,0.));
#282=DIRECTION('center_axis',(0.5,0.866025403784439,0.));
#283=DIRECTION('ref_axis',(-0.866025403784439,0.5,0.));
#284=DIRECTION('',(-0.866025403784439,0.5,0.));
#285=DIRECTION('',(0.,0.,1.));
#286=DIRECTION('',(0.,0.,1.));
#287=DIRECTION('center_axis',(1.,0.,0.));
#288=DIRECTION('ref_axis',(0.,1.,0.));
#289=DIRECTION('',(0.,1.,0.));
#290=DIRECTION('',(0.,0.,1.));
#291=DIRECTION('center_axis',(0.5,-0.866025403784439,0.));
#292=DIRECTION('ref_axis',(0.866025403784439,0.5,0.));
#293=DIRECTION('',(0.866025403784439,0.5,0.));
#294=DIRECTION('',(0.,0.,1.));
#295=DIRECTION('center_axis',(-0.5,-0.866025403784439,0.));
#296=DIRECTION('ref_axis',(0.866025403784439,-0.5,0.));
#297=DIRECTION('',(0.866025403784439,-0.5,0.));
#298=DIRECTION('',(0.,0.,1.));
#299=DIRECTION('center_axis',(-1.,-4.12063432796478E-16,0.));
#300=DIRECTION('ref_axis',(4.12063432796478E-16,-1.,0.));
#301=DIRECTION('',(4.12063432796478E-16,-1.,0.));
#302=DIRECTION('',(0.,0.,1.));
#303=DIRECTION('center_axis',(-0.5,0.866025403784438,0.));
#304=DIRECTION('ref_axis',(-0.866025403784438,-0.5,0.));
#305=DIRECTION('',(-0.866025403784438,-0.5,0.));
#306=DIRECTION('center_axis',(0.,0.,1.));
#307=DIRECTION('ref_axis',(1.,0.,0.));
#308=CARTESIAN_POINT('',(0.,0.,0.));
#309=CARTESIAN_POINT('Origin',(0.,0.,3.3));
#310=CARTESIAN_POINT('',(-3.25,3.9801020972289E-16,3.3));
#311=CARTESIAN_POINT('',(3.25,-3.9801020972289E-16,3.3));
#312=CARTESIAN_POINT('Origin',(0.,0.,3.3));
#313=CARTESIAN_POINT('',(3.55,-4.3474961369731E-16,3.));
#314=CARTESIAN_POINT('Origin',(3.55,-4.3474961369731E-16,3.3));
#315=CARTESIAN_POINT('Origin',(0.,0.,3.));
#316=CARTESIAN_POINT('Origin',(0.,0.,3.3));
#317=CARTESIAN_POINT('Origin',(0.,0.,0.));
#318=CARTESIAN_POINT('',(-3.25,-3.9801020972289E-16,4.5));
#319=CARTESIAN_POINT('Origin',(0.,0.,4.5));
#320=CARTESIAN_POINT('',(-3.25,-3.9801020972289E-16,0.));
#321=CARTESIAN_POINT('Origin',(0.,0.,3.));
#322=CARTESIAN_POINT('',(2.77555756156289E-16,8.08290376865476,3.));
#323=CARTESIAN_POINT('',(-7.,4.04145188432738,3.));
#324=CARTESIAN_POINT('',(2.77555756156289E-16,8.08290376865476,3.));
#325=CARTESIAN_POINT('',(-7.,-4.04145188432738,3.));
#326=CARTESIAN_POINT('',(-7.,4.04145188432738,3.));
#327=CARTESIAN_POINT('',(2.08166817117217E-15,-8.08290376865476,3.));
#328=CARTESIAN_POINT('',(-7.,-4.04145188432738,3.));
#329=CARTESIAN_POINT('',(7.,-4.04145188432738,3.));
#330=CARTESIAN_POINT('',(2.08166817117217E-15,-8.08290376865476,3.));
#331=CARTESIAN_POINT('',(7.,4.04145188432738,3.));
#332=CARTESIAN_POINT('',(7.,-4.04145188432738,3.));
#333=CARTESIAN_POINT('',(7.,4.04145188432738,3.));
#334=CARTESIAN_POINT('Origin',(0.,0.,4.5));
#335=CARTESIAN_POINT('',(1.76435,-2.16070558007563E-16,4.5));
#336=CARTESIAN_POINT('Origin',(0.,0.,4.5));
#337=CARTESIAN_POINT('Origin',(0.,0.,3.));
#338=CARTESIAN_POINT('',(1.76435,-2.16070558007563E-16,0.));
#339=CARTESIAN_POINT('',(1.76435,-2.16070558007563E-16,3.));
#340=CARTESIAN_POINT('Origin',(0.,0.,0.));
#341=CARTESIAN_POINT('Origin',(7.,4.04145188432738,0.));
#342=CARTESIAN_POINT('',(7.,4.04145188432738,0.));
#343=CARTESIAN_POINT('',(2.77555756156289E-16,8.08290376865476,0.));
#344=CARTESIAN_POINT('',(7.,4.04145188432738,0.));
#345=CARTESIAN_POINT('',(2.77555756156289E-16,8.08290376865476,0.));
#346=CARTESIAN_POINT('',(7.,4.04145188432738,0.));
#347=CARTESIAN_POINT('Origin',(7.,-4.04145188432738,0.));
#348=CARTESIAN_POINT('',(7.,-4.04145188432738,0.));
#349=CARTESIAN_POINT('',(7.,-4.04145188432738,0.));
#350=CARTESIAN_POINT('',(7.,-4.04145188432738,0.));
#351=CARTESIAN_POINT('Origin',(2.08166817117217E-15,-8.08290376865476,0.));
#352=CARTESIAN_POINT('',(2.08166817117217E-15,-8.08290376865476,0.));
#353=CARTESIAN_POINT('',(2.08166817117217E-15,-8.08290376865476,0.));
#354=CARTESIAN_POINT('',(2.08166817117217E-15,-8.08290376865476,0.));
#355=CARTESIAN_POINT('Origin',(-7.,-4.04145188432738,0.));
#356=CARTESIAN_POINT('',(-7.,-4.04145188432738,0.));
#357=CARTESIAN_POINT('',(-7.,-4.04145188432738,0.));
#358=CARTESIAN_POINT('',(-7.,-4.04145188432738,0.));
#359=CARTESIAN_POINT('Origin',(-7.,4.04145188432738,0.));
#360=CARTESIAN_POINT('',(-7.,4.04145188432738,0.));
#361=CARTESIAN_POINT('',(-7.,4.04145188432738,0.));
#362=CARTESIAN_POINT('',(-7.,4.04145188432738,0.));
#363=CARTESIAN_POINT('Origin',(2.77555756156289E-16,8.08290376865476,0.));
#364=CARTESIAN_POINT('',(2.77555756156289E-16,8.08290376865476,0.));
#365=CARTESIAN_POINT('Origin',(0.,0.,0.));
#366=UNCERTAINTY_MEASURE_WITH_UNIT(LENGTH_MEASURE(0.01),#370,
'DISTANCE_ACCURACY_VALUE',
'Maximum model space distance between geometric entities at asserted c
onnectivities');
#367=UNCERTAINTY_MEASURE_WITH_UNIT(LENGTH_MEASURE(0.01),#370,
'DISTANCE_ACCURACY_VALUE',
'Maximum model space distance between geometric entities at asserted c
onnectivities');
#368=(
GEOMETRIC_REPRESENTATION_CONTEXT(3)
GLOBAL_UNCERTAINTY_ASSIGNED_CONTEXT((#366))
GLOBAL_UNIT_ASSIGNED_CONTEXT((#370,#372,#373))
REPRESENTATION_CONTEXT('','3D')
);
#369=(
GEOMETRIC_REPRESENTATION_CONTEXT(3)
GLOBAL_UNCERTAINTY_ASSIGNED_CONTEXT((#367))
GLOBAL_UNIT_ASSIGNED_CONTEXT((#370,#372,#373))
REPRESENTATION_CONTEXT('','3D')
);
#370=(
LENGTH_UNIT()
NAMED_UNIT(*)
SI_UNIT(.MILLI.,.METRE.)
);
#371=(
LENGTH_UNIT()
NAMED_UNIT(*)
SI_UNIT($,.METRE.)
);
#372=(
NAMED_UNIT(*)
PLANE_ANGLE_UNIT()
SI_UNIT($,.RADIAN.)
);
#373=(
NAMED_UNIT(*)
SI_UNIT($,.STERADIAN.)
SOLID_ANGLE_UNIT()
);
#374=SHAPE_DEFINITION_REPRESENTATION(#375,#376);
#375=PRODUCT_DEFINITION_SHAPE('',$,#378);
#376=SHAPE_REPRESENTATION('',(#228),#368);
#377=PRODUCT_DEFINITION_CONTEXT('part definition',#382,'design');
#378=PRODUCT_DEFINITION('RSp_ecrou','RSp_ecrou v1',#379,#377);
#379=PRODUCT_DEFINITION_FORMATION('',$,#384);
#380=PRODUCT_RELATED_PRODUCT_CATEGORY('RSp_ecrou v1','RSp_ecrou v1',(#384));
#381=APPLICATION_PROTOCOL_DEFINITION('international standard',
'automotive_design',2009,#382);
#382=APPLICATION_CONTEXT(
'Core Data for Automotive Mechanical Design Process');
#383=PRODUCT_CONTEXT('part definition',#382,'mechanical');
#384=PRODUCT('RSp_ecrou','RSp_ecrou v1',$,(#383));
#385=PRESENTATION_STYLE_ASSIGNMENT((#387));
#386=PRESENTATION_STYLE_ASSIGNMENT((#388));
#387=SURFACE_STYLE_USAGE(.BOTH.,#389);
#388=SURFACE_STYLE_USAGE(.BOTH.,#390);
#389=SURFACE_SIDE_STYLE('',(#391));
#390=SURFACE_SIDE_STYLE('',(#392));
#391=SURFACE_STYLE_FILL_AREA(#393);
#392=SURFACE_STYLE_FILL_AREA(#394);
#393=FILL_AREA_STYLE('Steel - Satin',(#395));
#394=FILL_AREA_STYLE('Stainless Steel - Satin',(#396));
#395=FILL_AREA_STYLE_COLOUR('Steel - Satin',#397);
#396=FILL_AREA_STYLE_COLOUR('Stainless Steel - Satin',#398);
#397=COLOUR_RGB('Steel - Satin',0.627450980392157,0.627450980392157,0.627450980392157);
#398=COLOUR_RGB('Stainless Steel - Satin',0.796078431372549,0.796078431372549,
0.796078431372549);
ENDSEC;
END-ISO-10303-21;
