ISO-10303-21;
HEADER;
/* Generated by software containing ST-Developer
 * from STEP Tools, Inc. (www.steptools.com) 
 */

FILE_DESCRIPTION(
/* description */ (''),
/* implementation_level */ '2;1');

FILE_NAME(
/* name */ 'platine version ok.step',
/* time_stamp */ '2023-01-07T22:47:39+01:00',
/* author */ (''),
/* organization */ (''),
/* preprocessor_version */ 'ST-DEVELOPER v19.2',
/* originating_system */ 'Autodesk Translation Framework v11.17.0.187',

/* authorisation */ '');

FILE_SCHEMA (('AUTOMOTIVE_DESIGN { 1 0 10303 214 3 1 1 }'));
ENDSEC;

DATA;
#10=MECHANICAL_DESIGN_GEOMETRIC_PRESENTATION_REPRESENTATION('',(#13),#678);
#11=SHAPE_REPRESENTATION_RELATIONSHIP('SRR','None',#685,#12);
#12=ADVANCED_BREP_SHAPE_REPRESENTATION('',(#14),#677);
#13=STYLED_ITEM('',(#694),#14);
#14=MANIFOLD_SOLID_BREP('Corps1',#394);
#15=FACE_BOUND('',#62,.T.);
#16=FACE_BOUND('',#64,.T.);
#17=FACE_BOUND('',#67,.T.);
#18=FACE_BOUND('',#71,.T.);
#19=FACE_BOUND('',#77,.T.);
#20=FACE_BOUND('',#80,.T.);
#21=FACE_BOUND('',#88,.T.);
#22=FACE_BOUND('',#89,.T.);
#23=FACE_BOUND('',#90,.T.);
#24=FACE_BOUND('',#91,.T.);
#25=FACE_BOUND('',#92,.T.);
#26=PLANE('',#411);
#27=PLANE('',#413);
#28=PLANE('',#419);
#29=PLANE('',#421);
#30=PLANE('',#422);
#31=PLANE('',#423);
#32=PLANE('',#427);
#33=PLANE('',#428);
#34=PLANE('',#431);
#35=PLANE('',#436);
#36=PLANE('',#442);
#37=PLANE('',#449);
#38=FACE_OUTER_BOUND('',#60,.T.);
#39=FACE_OUTER_BOUND('',#61,.T.);
#40=FACE_OUTER_BOUND('',#63,.T.);
#41=FACE_OUTER_BOUND('',#65,.T.);
#42=FACE_OUTER_BOUND('',#66,.T.);
#43=FACE_OUTER_BOUND('',#68,.T.);
#44=FACE_OUTER_BOUND('',#69,.T.);
#45=FACE_OUTER_BOUND('',#70,.T.);
#46=FACE_OUTER_BOUND('',#72,.T.);
#47=FACE_OUTER_BOUND('',#73,.T.);
#48=FACE_OUTER_BOUND('',#74,.T.);
#49=FACE_OUTER_BOUND('',#75,.T.);
#50=FACE_OUTER_BOUND('',#76,.T.);
#51=FACE_OUTER_BOUND('',#78,.T.);
#52=FACE_OUTER_BOUND('',#79,.T.);
#53=FACE_OUTER_BOUND('',#81,.T.);
#54=FACE_OUTER_BOUND('',#82,.T.);
#55=FACE_OUTER_BOUND('',#83,.T.);
#56=FACE_OUTER_BOUND('',#84,.T.);
#57=FACE_OUTER_BOUND('',#85,.T.);
#58=FACE_OUTER_BOUND('',#86,.T.);
#59=FACE_OUTER_BOUND('',#87,.T.);
#60=EDGE_LOOP('',(#260,#261,#262,#263));
#61=EDGE_LOOP('',(#264,#265,#266));
#62=EDGE_LOOP('',(#267));
#63=EDGE_LOOP('',(#268,#269,#270,#271,#272,#273,#274));
#64=EDGE_LOOP('',(#275));
#65=EDGE_LOOP('',(#276,#277,#278,#279));
#66=EDGE_LOOP('',(#280,#281,#282));
#67=EDGE_LOOP('',(#283));
#68=EDGE_LOOP('',(#284,#285,#286,#287,#288,#289,#290,#291));
#69=EDGE_LOOP('',(#292,#293,#294,#295,#296,#297));
#70=EDGE_LOOP('',(#298,#299,#300));
#71=EDGE_LOOP('',(#301));
#72=EDGE_LOOP('',(#302,#303,#304,#305));
#73=EDGE_LOOP('',(#306,#307,#308,#309,#310,#311));
#74=EDGE_LOOP('',(#312,#313,#314,#315,#316,#317,#318,#319));
#75=EDGE_LOOP('',(#320,#321,#322,#323));
#76=EDGE_LOOP('',(#324));
#77=EDGE_LOOP('',(#325));
#78=EDGE_LOOP('',(#326,#327,#328,#329));
#79=EDGE_LOOP('',(#330));
#80=EDGE_LOOP('',(#331));
#81=EDGE_LOOP('',(#332,#333,#334,#335));
#82=EDGE_LOOP('',(#336,#337,#338,#339));
#83=EDGE_LOOP('',(#340));
#84=EDGE_LOOP('',(#341,#342,#343,#344));
#85=EDGE_LOOP('',(#345,#346,#347,#348));
#86=EDGE_LOOP('',(#349,#350,#351,#352));
#87=EDGE_LOOP('',(#353,#354,#355,#356));
#88=EDGE_LOOP('',(#357));
#89=EDGE_LOOP('',(#358));
#90=EDGE_LOOP('',(#359));
#91=EDGE_LOOP('',(#360));
#92=EDGE_LOOP('',(#361));
#93=CIRCLE('',#409,3.);
#94=CIRCLE('',#410,3.);
#95=CIRCLE('',#412,1.9);
#96=CIRCLE('',#414,3.);
#97=CIRCLE('',#415,3.);
#98=CIRCLE('',#416,1.9);
#99=CIRCLE('',#418,3.);
#100=CIRCLE('',#420,1.9);
#101=CIRCLE('',#424,3.);
#102=CIRCLE('',#425,1.9);
#103=CIRCLE('',#430,1.9);
#104=CIRCLE('',#432,0.9);
#105=CIRCLE('',#434,1.9);
#106=CIRCLE('',#435,1.9);
#107=CIRCLE('',#437,0.9);
#108=CIRCLE('',#440,13.);
#109=CIRCLE('',#441,13.);
#110=CIRCLE('',#444,1.9);
#111=CIRCLE('',#446,1.9);
#112=CIRCLE('',#448,1.9);
#113=LINE('',#571,#144);
#114=LINE('',#575,#145);
#115=LINE('',#579,#146);
#116=LINE('',#580,#147);
#117=LINE('',#585,#148);
#118=LINE('',#589,#149);
#119=LINE('',#591,#150);
#120=LINE('',#594,#151);
#121=LINE('',#599,#152);
#122=LINE('',#601,#153);
#123=LINE('',#605,#154);
#124=LINE('',#606,#155);
#125=LINE('',#611,#156);
#126=LINE('',#613,#157);
#127=LINE('',#614,#158);
#128=LINE('',#617,#159);
#129=LINE('',#618,#160);
#130=LINE('',#622,#161);
#131=LINE('',#625,#162);
#132=LINE('',#629,#163);
#133=LINE('',#630,#164);
#134=LINE('',#633,#165);
#135=LINE('',#634,#166);
#136=LINE('',#636,#167);
#137=LINE('',#639,#168);
#138=LINE('',#648,#169);
#139=LINE('',#654,#170);
#140=LINE('',#659,#171);
#141=LINE('',#665,#172);
#142=LINE('',#669,#173);
#143=LINE('',#673,#174);
#144=VECTOR('',#454,10.);
#145=VECTOR('',#457,10.);
#146=VECTOR('',#462,10.);
#147=VECTOR('',#463,10.);
#148=VECTOR('',#468,10.);
#149=VECTOR('',#471,10.);
#150=VECTOR('',#472,10.);
#151=VECTOR('',#475,10.);
#152=VECTOR('',#480,10.);
#153=VECTOR('',#481,10.);
#154=VECTOR('',#486,10.);
#155=VECTOR('',#487,10.);
#156=VECTOR('',#492,10.);
#157=VECTOR('',#493,10.);
#158=VECTOR('',#494,10.);
#159=VECTOR('',#497,10.);
#160=VECTOR('',#498,10.);
#161=VECTOR('',#501,10.);
#162=VECTOR('',#504,10.);
#163=VECTOR('',#509,10.);
#164=VECTOR('',#510,10.);
#165=VECTOR('',#513,10.);
#166=VECTOR('',#514,10.);
#167=VECTOR('',#517,10.);
#168=VECTOR('',#520,1.9);
#169=VECTOR('',#531,1.9);
#170=VECTOR('',#540,0.9);
#171=VECTOR('',#545,13.);
#172=VECTOR('',#554,1.9);
#173=VECTOR('',#559,1.9);
#174=VECTOR('',#564,1.9);
#175=VERTEX_POINT('',#569);
#176=VERTEX_POINT('',#570);
#177=VERTEX_POINT('',#572);
#178=VERTEX_POINT('',#574);
#179=VERTEX_POINT('',#578);
#180=VERTEX_POINT('',#581);
#181=VERTEX_POINT('',#584);
#182=VERTEX_POINT('',#586);
#183=VERTEX_POINT('',#588);
#184=VERTEX_POINT('',#590);
#185=VERTEX_POINT('',#592);
#186=VERTEX_POINT('',#595);
#187=VERTEX_POINT('',#598);
#188=VERTEX_POINT('',#600);
#189=VERTEX_POINT('',#604);
#190=VERTEX_POINT('',#607);
#191=VERTEX_POINT('',#610);
#192=VERTEX_POINT('',#612);
#193=VERTEX_POINT('',#616);
#194=VERTEX_POINT('',#620);
#195=VERTEX_POINT('',#621);
#196=VERTEX_POINT('',#623);
#197=VERTEX_POINT('',#626);
#198=VERTEX_POINT('',#632);
#199=VERTEX_POINT('',#638);
#200=VERTEX_POINT('',#642);
#201=VERTEX_POINT('',#645);
#202=VERTEX_POINT('',#647);
#203=VERTEX_POINT('',#651);
#204=VERTEX_POINT('',#656);
#205=VERTEX_POINT('',#658);
#206=VERTEX_POINT('',#663);
#207=VERTEX_POINT('',#667);
#208=VERTEX_POINT('',#671);
#209=EDGE_CURVE('',#175,#176,#113,.T.);
#210=EDGE_CURVE('',#175,#177,#93,.T.);
#211=EDGE_CURVE('',#178,#177,#114,.T.);
#212=EDGE_CURVE('',#176,#178,#94,.T.);
#213=EDGE_CURVE('',#179,#175,#115,.T.);
#214=EDGE_CURVE('',#177,#179,#116,.T.);
#215=EDGE_CURVE('',#180,#180,#95,.T.);
#216=EDGE_CURVE('',#178,#181,#117,.T.);
#217=EDGE_CURVE('',#181,#182,#96,.T.);
#218=EDGE_CURVE('',#182,#183,#118,.T.);
#219=EDGE_CURVE('',#183,#184,#119,.T.);
#220=EDGE_CURVE('',#184,#185,#97,.T.);
#221=EDGE_CURVE('',#185,#176,#120,.T.);
#222=EDGE_CURVE('',#186,#186,#98,.T.);
#223=EDGE_CURVE('',#185,#187,#121,.T.);
#224=EDGE_CURVE('',#188,#184,#122,.T.);
#225=EDGE_CURVE('',#188,#187,#99,.T.);
#226=EDGE_CURVE('',#187,#189,#123,.T.);
#227=EDGE_CURVE('',#189,#188,#124,.T.);
#228=EDGE_CURVE('',#190,#190,#100,.T.);
#229=EDGE_CURVE('',#191,#189,#125,.T.);
#230=EDGE_CURVE('',#192,#191,#126,.T.);
#231=EDGE_CURVE('',#192,#179,#127,.T.);
#232=EDGE_CURVE('',#193,#183,#128,.T.);
#233=EDGE_CURVE('',#191,#193,#129,.T.);
#234=EDGE_CURVE('',#194,#195,#130,.T.);
#235=EDGE_CURVE('',#196,#194,#101,.T.);
#236=EDGE_CURVE('',#195,#196,#131,.T.);
#237=EDGE_CURVE('',#197,#197,#102,.T.);
#238=EDGE_CURVE('',#182,#194,#132,.T.);
#239=EDGE_CURVE('',#196,#181,#133,.T.);
#240=EDGE_CURVE('',#198,#195,#134,.T.);
#241=EDGE_CURVE('',#193,#198,#135,.T.);
#242=EDGE_CURVE('',#198,#192,#136,.T.);
#243=EDGE_CURVE('',#186,#199,#137,.T.);
#244=EDGE_CURVE('',#199,#199,#103,.T.);
#245=EDGE_CURVE('',#200,#200,#104,.T.);
#246=EDGE_CURVE('',#201,#201,#105,.T.);
#247=EDGE_CURVE('',#201,#202,#138,.T.);
#248=EDGE_CURVE('',#202,#202,#106,.T.);
#249=EDGE_CURVE('',#203,#203,#107,.T.);
#250=EDGE_CURVE('',#203,#200,#139,.T.);
#251=EDGE_CURVE('',#204,#204,#108,.T.);
#252=EDGE_CURVE('',#204,#205,#140,.T.);
#253=EDGE_CURVE('',#205,#205,#109,.T.);
#254=EDGE_CURVE('',#206,#206,#110,.T.);
#255=EDGE_CURVE('',#206,#190,#141,.T.);
#256=EDGE_CURVE('',#207,#207,#111,.T.);
#257=EDGE_CURVE('',#207,#180,#142,.T.);
#258=EDGE_CURVE('',#208,#208,#112,.T.);
#259=EDGE_CURVE('',#208,#197,#143,.T.);
#260=ORIENTED_EDGE('',*,*,#209,.F.);
#261=ORIENTED_EDGE('',*,*,#210,.T.);
#262=ORIENTED_EDGE('',*,*,#211,.F.);
#263=ORIENTED_EDGE('',*,*,#212,.F.);
#264=ORIENTED_EDGE('',*,*,#213,.F.);
#265=ORIENTED_EDGE('',*,*,#214,.F.);
#266=ORIENTED_EDGE('',*,*,#210,.F.);
#267=ORIENTED_EDGE('',*,*,#215,.F.);
#268=ORIENTED_EDGE('',*,*,#212,.T.);
#269=ORIENTED_EDGE('',*,*,#216,.T.);
#270=ORIENTED_EDGE('',*,*,#217,.T.);
#271=ORIENTED_EDGE('',*,*,#218,.T.);
#272=ORIENTED_EDGE('',*,*,#219,.T.);
#273=ORIENTED_EDGE('',*,*,#220,.T.);
#274=ORIENTED_EDGE('',*,*,#221,.T.);
#275=ORIENTED_EDGE('',*,*,#222,.T.);
#276=ORIENTED_EDGE('',*,*,#223,.F.);
#277=ORIENTED_EDGE('',*,*,#220,.F.);
#278=ORIENTED_EDGE('',*,*,#224,.F.);
#279=ORIENTED_EDGE('',*,*,#225,.T.);
#280=ORIENTED_EDGE('',*,*,#226,.F.);
#281=ORIENTED_EDGE('',*,*,#225,.F.);
#282=ORIENTED_EDGE('',*,*,#227,.F.);
#283=ORIENTED_EDGE('',*,*,#228,.F.);
#284=ORIENTED_EDGE('',*,*,#209,.T.);
#285=ORIENTED_EDGE('',*,*,#221,.F.);
#286=ORIENTED_EDGE('',*,*,#223,.T.);
#287=ORIENTED_EDGE('',*,*,#226,.T.);
#288=ORIENTED_EDGE('',*,*,#229,.F.);
#289=ORIENTED_EDGE('',*,*,#230,.F.);
#290=ORIENTED_EDGE('',*,*,#231,.T.);
#291=ORIENTED_EDGE('',*,*,#213,.T.);
#292=ORIENTED_EDGE('',*,*,#227,.T.);
#293=ORIENTED_EDGE('',*,*,#224,.T.);
#294=ORIENTED_EDGE('',*,*,#219,.F.);
#295=ORIENTED_EDGE('',*,*,#232,.F.);
#296=ORIENTED_EDGE('',*,*,#233,.F.);
#297=ORIENTED_EDGE('',*,*,#229,.T.);
#298=ORIENTED_EDGE('',*,*,#234,.F.);
#299=ORIENTED_EDGE('',*,*,#235,.F.);
#300=ORIENTED_EDGE('',*,*,#236,.F.);
#301=ORIENTED_EDGE('',*,*,#237,.F.);
#302=ORIENTED_EDGE('',*,*,#238,.F.);
#303=ORIENTED_EDGE('',*,*,#217,.F.);
#304=ORIENTED_EDGE('',*,*,#239,.F.);
#305=ORIENTED_EDGE('',*,*,#235,.T.);
#306=ORIENTED_EDGE('',*,*,#238,.T.);
#307=ORIENTED_EDGE('',*,*,#234,.T.);
#308=ORIENTED_EDGE('',*,*,#240,.F.);
#309=ORIENTED_EDGE('',*,*,#241,.F.);
#310=ORIENTED_EDGE('',*,*,#232,.T.);
#311=ORIENTED_EDGE('',*,*,#218,.F.);
#312=ORIENTED_EDGE('',*,*,#214,.T.);
#313=ORIENTED_EDGE('',*,*,#231,.F.);
#314=ORIENTED_EDGE('',*,*,#242,.F.);
#315=ORIENTED_EDGE('',*,*,#240,.T.);
#316=ORIENTED_EDGE('',*,*,#236,.T.);
#317=ORIENTED_EDGE('',*,*,#239,.T.);
#318=ORIENTED_EDGE('',*,*,#216,.F.);
#319=ORIENTED_EDGE('',*,*,#211,.T.);
#320=ORIENTED_EDGE('',*,*,#222,.F.);
#321=ORIENTED_EDGE('',*,*,#243,.T.);
#322=ORIENTED_EDGE('',*,*,#244,.T.);
#323=ORIENTED_EDGE('',*,*,#243,.F.);
#324=ORIENTED_EDGE('',*,*,#244,.F.);
#325=ORIENTED_EDGE('',*,*,#245,.F.);
#326=ORIENTED_EDGE('',*,*,#246,.F.);
#327=ORIENTED_EDGE('',*,*,#247,.T.);
#328=ORIENTED_EDGE('',*,*,#248,.T.);
#329=ORIENTED_EDGE('',*,*,#247,.F.);
#330=ORIENTED_EDGE('',*,*,#248,.F.);
#331=ORIENTED_EDGE('',*,*,#249,.F.);
#332=ORIENTED_EDGE('',*,*,#249,.T.);
#333=ORIENTED_EDGE('',*,*,#250,.T.);
#334=ORIENTED_EDGE('',*,*,#245,.T.);
#335=ORIENTED_EDGE('',*,*,#250,.F.);
#336=ORIENTED_EDGE('',*,*,#251,.F.);
#337=ORIENTED_EDGE('',*,*,#252,.T.);
#338=ORIENTED_EDGE('',*,*,#253,.T.);
#339=ORIENTED_EDGE('',*,*,#252,.F.);
#340=ORIENTED_EDGE('',*,*,#253,.F.);
#341=ORIENTED_EDGE('',*,*,#254,.F.);
#342=ORIENTED_EDGE('',*,*,#255,.T.);
#343=ORIENTED_EDGE('',*,*,#228,.T.);
#344=ORIENTED_EDGE('',*,*,#255,.F.);
#345=ORIENTED_EDGE('',*,*,#256,.F.);
#346=ORIENTED_EDGE('',*,*,#257,.T.);
#347=ORIENTED_EDGE('',*,*,#215,.T.);
#348=ORIENTED_EDGE('',*,*,#257,.F.);
#349=ORIENTED_EDGE('',*,*,#258,.F.);
#350=ORIENTED_EDGE('',*,*,#259,.T.);
#351=ORIENTED_EDGE('',*,*,#237,.T.);
#352=ORIENTED_EDGE('',*,*,#259,.F.);
#353=ORIENTED_EDGE('',*,*,#242,.T.);
#354=ORIENTED_EDGE('',*,*,#230,.T.);
#355=ORIENTED_EDGE('',*,*,#233,.T.);
#356=ORIENTED_EDGE('',*,*,#241,.T.);
#357=ORIENTED_EDGE('',*,*,#246,.T.);
#358=ORIENTED_EDGE('',*,*,#251,.T.);
#359=ORIENTED_EDGE('',*,*,#254,.T.);
#360=ORIENTED_EDGE('',*,*,#256,.T.);
#361=ORIENTED_EDGE('',*,*,#258,.T.);
#362=CYLINDRICAL_SURFACE('',#408,3.);
#363=CYLINDRICAL_SURFACE('',#417,3.);
#364=CYLINDRICAL_SURFACE('',#426,3.);
#365=CYLINDRICAL_SURFACE('',#429,1.9);
#366=CYLINDRICAL_SURFACE('',#433,1.9);
#367=CYLINDRICAL_SURFACE('',#438,0.9);
#368=CYLINDRICAL_SURFACE('',#439,13.);
#369=CYLINDRICAL_SURFACE('',#443,1.9);
#370=CYLINDRICAL_SURFACE('',#445,1.9);
#371=CYLINDRICAL_SURFACE('',#447,1.9);
#372=ADVANCED_FACE('',(#38),#362,.F.);
#373=ADVANCED_FACE('',(#39,#15),#26,.F.);
#374=ADVANCED_FACE('',(#40,#16),#27,.T.);
#375=ADVANCED_FACE('',(#41),#363,.F.);
#376=ADVANCED_FACE('',(#42,#17),#28,.F.);
#377=ADVANCED_FACE('',(#43),#29,.T.);
#378=ADVANCED_FACE('',(#44),#30,.T.);
#379=ADVANCED_FACE('',(#45,#18),#31,.F.);
#380=ADVANCED_FACE('',(#46),#364,.F.);
#381=ADVANCED_FACE('',(#47),#32,.T.);
#382=ADVANCED_FACE('',(#48),#33,.T.);
#383=ADVANCED_FACE('',(#49),#365,.F.);
#384=ADVANCED_FACE('',(#50,#19),#34,.F.);
#385=ADVANCED_FACE('',(#51),#366,.F.);
#386=ADVANCED_FACE('',(#52,#20),#35,.F.);
#387=ADVANCED_FACE('',(#53),#367,.F.);
#388=ADVANCED_FACE('',(#54),#368,.F.);
#389=ADVANCED_FACE('',(#55),#36,.F.);
#390=ADVANCED_FACE('',(#56),#369,.F.);
#391=ADVANCED_FACE('',(#57),#370,.F.);
#392=ADVANCED_FACE('',(#58),#371,.F.);
#393=ADVANCED_FACE('',(#59,#21,#22,#23,#24,#25),#37,.F.);
#394=CLOSED_SHELL('',(#372,#373,#374,#375,#376,#377,#378,#379,#380,#381,
#382,#383,#384,#385,#386,#387,#388,#389,#390,#391,#392,#393));
#395=DERIVED_UNIT_ELEMENT(#397,1.);
#396=DERIVED_UNIT_ELEMENT(#680,-3.);
#397=(
MASS_UNIT()
NAMED_UNIT(*)
SI_UNIT(.KILO.,.GRAM.)
);
#398=DERIVED_UNIT((#395,#396));
#399=MEASURE_REPRESENTATION_ITEM('density measure',
POSITIVE_RATIO_MEASURE(7850.),#398);
#400=PROPERTY_DEFINITION_REPRESENTATION(#405,#402);
#401=PROPERTY_DEFINITION_REPRESENTATION(#406,#403);
#402=REPRESENTATION('material name',(#404),#677);
#403=REPRESENTATION('density',(#399),#677);
#404=DESCRIPTIVE_REPRESENTATION_ITEM('Acier','Acier');
#405=PROPERTY_DEFINITION('material property','material name',#687);
#406=PROPERTY_DEFINITION('material property','density of part',#687);
#407=AXIS2_PLACEMENT_3D('placement',#567,#450,#451);
#408=AXIS2_PLACEMENT_3D('',#568,#452,#453);
#409=AXIS2_PLACEMENT_3D('',#573,#455,#456);
#410=AXIS2_PLACEMENT_3D('',#576,#458,#459);
#411=AXIS2_PLACEMENT_3D('',#577,#460,#461);
#412=AXIS2_PLACEMENT_3D('',#582,#464,#465);
#413=AXIS2_PLACEMENT_3D('',#583,#466,#467);
#414=AXIS2_PLACEMENT_3D('',#587,#469,#470);
#415=AXIS2_PLACEMENT_3D('',#593,#473,#474);
#416=AXIS2_PLACEMENT_3D('',#596,#476,#477);
#417=AXIS2_PLACEMENT_3D('',#597,#478,#479);
#418=AXIS2_PLACEMENT_3D('',#602,#482,#483);
#419=AXIS2_PLACEMENT_3D('',#603,#484,#485);
#420=AXIS2_PLACEMENT_3D('',#608,#488,#489);
#421=AXIS2_PLACEMENT_3D('',#609,#490,#491);
#422=AXIS2_PLACEMENT_3D('',#615,#495,#496);
#423=AXIS2_PLACEMENT_3D('',#619,#499,#500);
#424=AXIS2_PLACEMENT_3D('',#624,#502,#503);
#425=AXIS2_PLACEMENT_3D('',#627,#505,#506);
#426=AXIS2_PLACEMENT_3D('',#628,#507,#508);
#427=AXIS2_PLACEMENT_3D('',#631,#511,#512);
#428=AXIS2_PLACEMENT_3D('',#635,#515,#516);
#429=AXIS2_PLACEMENT_3D('',#637,#518,#519);
#430=AXIS2_PLACEMENT_3D('',#640,#521,#522);
#431=AXIS2_PLACEMENT_3D('',#641,#523,#524);
#432=AXIS2_PLACEMENT_3D('',#643,#525,#526);
#433=AXIS2_PLACEMENT_3D('',#644,#527,#528);
#434=AXIS2_PLACEMENT_3D('',#646,#529,#530);
#435=AXIS2_PLACEMENT_3D('',#649,#532,#533);
#436=AXIS2_PLACEMENT_3D('',#650,#534,#535);
#437=AXIS2_PLACEMENT_3D('',#652,#536,#537);
#438=AXIS2_PLACEMENT_3D('',#653,#538,#539);
#439=AXIS2_PLACEMENT_3D('',#655,#541,#542);
#440=AXIS2_PLACEMENT_3D('',#657,#543,#544);
#441=AXIS2_PLACEMENT_3D('',#660,#546,#547);
#442=AXIS2_PLACEMENT_3D('',#661,#548,#549);
#443=AXIS2_PLACEMENT_3D('',#662,#550,#551);
#444=AXIS2_PLACEMENT_3D('',#664,#552,#553);
#445=AXIS2_PLACEMENT_3D('',#666,#555,#556);
#446=AXIS2_PLACEMENT_3D('',#668,#557,#558);
#447=AXIS2_PLACEMENT_3D('',#670,#560,#561);
#448=AXIS2_PLACEMENT_3D('',#672,#562,#563);
#449=AXIS2_PLACEMENT_3D('',#674,#565,#566);
#450=DIRECTION('axis',(0.,0.,1.));
#451=DIRECTION('refdir',(1.,0.,0.));
#452=DIRECTION('center_axis',(0.,0.,-1.));
#453=DIRECTION('ref_axis',(1.,0.,0.));
#454=DIRECTION('',(0.,0.,1.));
#455=DIRECTION('center_axis',(0.,0.,-1.));
#456=DIRECTION('ref_axis',(1.,0.,0.));
#457=DIRECTION('',(0.,0.,-1.));
#458=DIRECTION('center_axis',(0.,0.,-1.));
#459=DIRECTION('ref_axis',(1.,0.,0.));
#460=DIRECTION('center_axis',(0.,0.,-1.));
#461=DIRECTION('ref_axis',(1.,0.,0.));
#462=DIRECTION('',(0.,1.,0.));
#463=DIRECTION('',(-1.,0.,0.));
#464=DIRECTION('center_axis',(0.,0.,1.));
#465=DIRECTION('ref_axis',(-1.,0.,0.));
#466=DIRECTION('center_axis',(0.,0.,1.));
#467=DIRECTION('ref_axis',(1.,0.,0.));
#468=DIRECTION('',(1.,0.,0.));
#469=DIRECTION('center_axis',(0.,0.,-1.));
#470=DIRECTION('ref_axis',(1.,0.,0.));
#471=DIRECTION('',(0.,1.,0.));
#472=DIRECTION('',(-1.,0.,0.));
#473=DIRECTION('center_axis',(0.,0.,-1.));
#474=DIRECTION('ref_axis',(1.,0.,0.));
#475=DIRECTION('',(0.,-1.,0.));
#476=DIRECTION('center_axis',(0.,0.,-1.));
#477=DIRECTION('ref_axis',(1.,0.,0.));
#478=DIRECTION('center_axis',(0.,0.,-1.));
#479=DIRECTION('ref_axis',(1.,0.,0.));
#480=DIRECTION('',(0.,0.,-1.));
#481=DIRECTION('',(0.,0.,1.));
#482=DIRECTION('center_axis',(0.,0.,-1.));
#483=DIRECTION('ref_axis',(1.,0.,0.));
#484=DIRECTION('center_axis',(0.,0.,-1.));
#485=DIRECTION('ref_axis',(1.,0.,0.));
#486=DIRECTION('',(0.,1.,0.));
#487=DIRECTION('',(1.,0.,0.));
#488=DIRECTION('center_axis',(0.,0.,1.));
#489=DIRECTION('ref_axis',(-1.,0.,0.));
#490=DIRECTION('center_axis',(-1.,0.,0.));
#491=DIRECTION('ref_axis',(0.,-1.,0.));
#492=DIRECTION('',(0.,0.,1.));
#493=DIRECTION('',(0.,1.,0.));
#494=DIRECTION('',(0.,0.,1.));
#495=DIRECTION('center_axis',(0.,1.,0.));
#496=DIRECTION('ref_axis',(-1.,0.,0.));
#497=DIRECTION('',(0.,0.,1.));
#498=DIRECTION('',(1.,0.,0.));
#499=DIRECTION('center_axis',(0.,0.,-1.));
#500=DIRECTION('ref_axis',(1.,0.,0.));
#501=DIRECTION('',(0.,-1.,0.));
#502=DIRECTION('center_axis',(0.,0.,-1.));
#503=DIRECTION('ref_axis',(1.,0.,0.));
#504=DIRECTION('',(-1.,0.,0.));
#505=DIRECTION('center_axis',(0.,0.,1.));
#506=DIRECTION('ref_axis',(-1.,0.,0.));
#507=DIRECTION('center_axis',(0.,0.,-1.));
#508=DIRECTION('ref_axis',(-0.707106781186547,0.707106781186548,0.));
#509=DIRECTION('',(0.,0.,-1.));
#510=DIRECTION('',(0.,0.,1.));
#511=DIRECTION('center_axis',(1.,0.,0.));
#512=DIRECTION('ref_axis',(0.,1.,0.));
#513=DIRECTION('',(0.,0.,1.));
#514=DIRECTION('',(0.,-1.,0.));
#515=DIRECTION('center_axis',(0.,-1.,0.));
#516=DIRECTION('ref_axis',(1.,0.,0.));
#517=DIRECTION('',(-1.,0.,0.));
#518=DIRECTION('center_axis',(0.,0.,-1.));
#519=DIRECTION('ref_axis',(1.,0.,0.));
#520=DIRECTION('',(0.,0.,-1.));
#521=DIRECTION('center_axis',(0.,0.,-1.));
#522=DIRECTION('ref_axis',(1.,0.,0.));
#523=DIRECTION('center_axis',(0.,0.,-1.));
#524=DIRECTION('ref_axis',(1.,0.,0.));
#525=DIRECTION('center_axis',(0.,0.,1.));
#526=DIRECTION('ref_axis',(-1.,0.,0.));
#527=DIRECTION('center_axis',(0.,0.,1.));
#528=DIRECTION('ref_axis',(-1.,0.,0.));
#529=DIRECTION('center_axis',(0.,0.,1.));
#530=DIRECTION('ref_axis',(-1.,0.,0.));
#531=DIRECTION('',(0.,0.,1.));
#532=DIRECTION('center_axis',(0.,0.,1.));
#533=DIRECTION('ref_axis',(-1.,0.,0.));
#534=DIRECTION('center_axis',(0.,0.,1.));
#535=DIRECTION('ref_axis',(-1.,0.,0.));
#536=DIRECTION('center_axis',(0.,0.,-1.));
#537=DIRECTION('ref_axis',(-1.,0.,0.));
#538=DIRECTION('center_axis',(0.,0.,1.));
#539=DIRECTION('ref_axis',(-1.,0.,0.));
#540=DIRECTION('',(0.,0.,1.));
#541=DIRECTION('center_axis',(0.,0.,1.));
#542=DIRECTION('ref_axis',(-1.,0.,0.));
#543=DIRECTION('center_axis',(0.,0.,1.));
#544=DIRECTION('ref_axis',(-1.,0.,0.));
#545=DIRECTION('',(0.,0.,1.));
#546=DIRECTION('center_axis',(0.,0.,1.));
#547=DIRECTION('ref_axis',(-1.,0.,0.));
#548=DIRECTION('center_axis',(0.,0.,1.));
#549=DIRECTION('ref_axis',(-1.,0.,0.));
#550=DIRECTION('center_axis',(0.,0.,1.));
#551=DIRECTION('ref_axis',(-1.,0.,0.));
#552=DIRECTION('center_axis',(0.,0.,1.));
#553=DIRECTION('ref_axis',(-1.,0.,0.));
#554=DIRECTION('',(0.,0.,1.));
#555=DIRECTION('center_axis',(0.,0.,1.));
#556=DIRECTION('ref_axis',(-1.,0.,0.));
#557=DIRECTION('center_axis',(0.,0.,1.));
#558=DIRECTION('ref_axis',(-1.,0.,0.));
#559=DIRECTION('',(0.,0.,1.));
#560=DIRECTION('center_axis',(0.,0.,1.));
#561=DIRECTION('ref_axis',(-1.,0.,0.));
#562=DIRECTION('center_axis',(0.,0.,1.));
#563=DIRECTION('ref_axis',(-1.,0.,0.));
#564=DIRECTION('',(0.,0.,1.));
#565=DIRECTION('center_axis',(0.,0.,1.));
#566=DIRECTION('ref_axis',(1.,0.,0.));
#567=CARTESIAN_POINT('',(0.,0.,0.));
#568=CARTESIAN_POINT('Origin',(2.05060988697537,-26.9493905560934,4.75));
#569=CARTESIAN_POINT('',(0.,-24.7596419195054,3.));
#570=CARTESIAN_POINT('',(0.,-24.7596419195054,6.5));
#571=CARTESIAN_POINT('',(0.,-24.7596419195054,4.75));
#572=CARTESIAN_POINT('',(4.24035893847901,-29.,3.));
#573=CARTESIAN_POINT('Origin',(2.05060988697537,-26.9493905560934,3.));
#574=CARTESIAN_POINT('',(4.24035893847901,-29.,6.5));
#575=CARTESIAN_POINT('',(4.24035893847901,-29.,4.75));
#576=CARTESIAN_POINT('Origin',(2.05060988697537,-26.9493905560934,6.5));
#577=CARTESIAN_POINT('Origin',(2.05060988697537,-26.9493905560934,3.));
#578=CARTESIAN_POINT('',(0.,-29.,3.));
#579=CARTESIAN_POINT('',(0.,-13.4746952780467,3.));
#580=CARTESIAN_POINT('',(1.02530494348768,-29.,3.));
#581=CARTESIAN_POINT('',(3.95060988697537,-26.9493905560934,3.));
#582=CARTESIAN_POINT('Origin',(2.05060988697537,-26.9493905560934,3.));
#583=CARTESIAN_POINT('Origin',(14.5,-14.5,6.5));
#584=CARTESIAN_POINT('',(24.7596414905132,-29.,6.5));
#585=CARTESIAN_POINT('',(29.,-29.,6.5));
#586=CARTESIAN_POINT('',(29.,-24.7596414905132,6.5));
#587=CARTESIAN_POINT('Origin',(26.949390334559,-26.949390334559,6.5));
#588=CARTESIAN_POINT('',(29.,0.,6.5));
#589=CARTESIAN_POINT('',(29.,0.,6.5));
#590=CARTESIAN_POINT('',(4.24035850948681,0.,6.5));
#591=CARTESIAN_POINT('',(0.,0.,6.5));
#592=CARTESIAN_POINT('',(0.,-4.24035850948681,6.5));
#593=CARTESIAN_POINT('Origin',(2.05060966544099,-2.05060966544099,6.5));
#594=CARTESIAN_POINT('',(0.,-29.,6.5));
#595=CARTESIAN_POINT('',(25.049390334559,-2.05060966544099,6.5));
#596=CARTESIAN_POINT('Origin',(26.949390334559,-2.05060966544099,6.5));
#597=CARTESIAN_POINT('Origin',(2.05060966544099,-2.05060966544099,4.75));
#598=CARTESIAN_POINT('',(0.,-4.24035850948681,3.));
#599=CARTESIAN_POINT('',(0.,-4.24035850948681,4.75));
#600=CARTESIAN_POINT('',(4.24035850948681,0.,3.));
#601=CARTESIAN_POINT('',(4.24035850948681,0.,4.75));
#602=CARTESIAN_POINT('Origin',(2.05060966544099,-2.05060966544099,3.));
#603=CARTESIAN_POINT('Origin',(2.05060966544099,-2.05060966544099,3.));
#604=CARTESIAN_POINT('',(0.,0.,3.));
#605=CARTESIAN_POINT('',(0.,-1.02530483272049,3.));
#606=CARTESIAN_POINT('',(15.5253048327205,0.,3.));
#607=CARTESIAN_POINT('',(3.95060966544099,-2.05060966544099,3.));
#608=CARTESIAN_POINT('Origin',(2.05060966544099,-2.05060966544099,3.));
#609=CARTESIAN_POINT('Origin',(0.,0.,0.));
#610=CARTESIAN_POINT('',(0.,0.,0.));
#611=CARTESIAN_POINT('',(0.,0.,0.));
#612=CARTESIAN_POINT('',(0.,-29.,0.));
#613=CARTESIAN_POINT('',(0.,-29.,0.));
#614=CARTESIAN_POINT('',(0.,-29.,0.));
#615=CARTESIAN_POINT('Origin',(29.,0.,0.));
#616=CARTESIAN_POINT('',(29.,0.,0.));
#617=CARTESIAN_POINT('',(29.,0.,0.));
#618=CARTESIAN_POINT('',(0.,0.,0.));
#619=CARTESIAN_POINT('Origin',(26.949390334559,-26.949390334559,3.));
#620=CARTESIAN_POINT('',(29.,-24.7596414905132,3.));
#621=CARTESIAN_POINT('',(29.,-29.,3.));
#622=CARTESIAN_POINT('',(29.,-27.9746951672795,3.));
#623=CARTESIAN_POINT('',(24.7596414905132,-29.,3.));
#624=CARTESIAN_POINT('Origin',(26.949390334559,-26.949390334559,3.));
#625=CARTESIAN_POINT('',(13.4746951672795,-29.,3.));
#626=CARTESIAN_POINT('',(28.849390334559,-26.949390334559,3.));
#627=CARTESIAN_POINT('Origin',(26.949390334559,-26.949390334559,3.));
#628=CARTESIAN_POINT('Origin',(26.949390334559,-26.949390334559,4.75));
#629=CARTESIAN_POINT('',(29.,-24.7596414905132,4.75));
#630=CARTESIAN_POINT('',(24.7596414905132,-29.,4.75));
#631=CARTESIAN_POINT('Origin',(29.,-29.,0.));
#632=CARTESIAN_POINT('',(29.,-29.,0.));
#633=CARTESIAN_POINT('',(29.,-29.,0.));
#634=CARTESIAN_POINT('',(29.,0.,0.));
#635=CARTESIAN_POINT('Origin',(0.,-29.,0.));
#636=CARTESIAN_POINT('',(29.,-29.,0.));
#637=CARTESIAN_POINT('Origin',(26.949390334559,-2.05060966544099,6.25));
#638=CARTESIAN_POINT('',(25.049390334559,-2.05060966544099,6.));
#639=CARTESIAN_POINT('',(25.049390334559,-2.05060966544099,6.25));
#640=CARTESIAN_POINT('Origin',(26.949390334559,-2.05060966544099,6.));
#641=CARTESIAN_POINT('Origin',(26.949390334559,-2.05060966544099,6.));
#642=CARTESIAN_POINT('',(27.849390334559,-2.05060966544099,6.));
#643=CARTESIAN_POINT('Origin',(26.949390334559,-2.05060966544099,6.));
#644=CARTESIAN_POINT('Origin',(26.949390334559,-2.05060966544099,0.25));
#645=CARTESIAN_POINT('',(28.849390334559,-2.05060966544099,3.46944695195361E-17));
#646=CARTESIAN_POINT('Origin',(26.949390334559,-2.05060966544099,0.));
#647=CARTESIAN_POINT('',(28.849390334559,-2.05060966544099,0.5));
#648=CARTESIAN_POINT('',(28.849390334559,-2.05060966544099,0.25));
#649=CARTESIAN_POINT('Origin',(26.949390334559,-2.05060966544099,0.5));
#650=CARTESIAN_POINT('Origin',(26.949390334559,-2.05060966544099,0.5));
#651=CARTESIAN_POINT('',(27.849390334559,-2.05060966544099,0.5));
#652=CARTESIAN_POINT('Origin',(26.949390334559,-2.05060966544099,0.5));
#653=CARTESIAN_POINT('Origin',(26.949390334559,-2.05060966544099,3.25));
#654=CARTESIAN_POINT('',(27.849390334559,-2.05060966544099,3.25));
#655=CARTESIAN_POINT('Origin',(14.5,-14.5,2.25));
#656=CARTESIAN_POINT('',(27.5,-14.5,0.));
#657=CARTESIAN_POINT('Origin',(14.5,-14.5,0.));
#658=CARTESIAN_POINT('',(27.5,-14.5,4.5));
#659=CARTESIAN_POINT('',(27.5,-14.5,2.25));
#660=CARTESIAN_POINT('Origin',(14.5,-14.5,4.5));
#661=CARTESIAN_POINT('Origin',(14.5,-14.5,4.5));
#662=CARTESIAN_POINT('Origin',(2.05060966544099,-2.05060966544099,3.25));
#663=CARTESIAN_POINT('',(3.95060966544099,-2.05060966544099,0.));
#664=CARTESIAN_POINT('Origin',(2.05060966544099,-2.05060966544099,0.));
#665=CARTESIAN_POINT('',(3.95060966544099,-2.05060966544099,3.25));
#666=CARTESIAN_POINT('Origin',(2.05060988697537,-26.9493905560934,3.25));
#667=CARTESIAN_POINT('',(3.95060988697537,-26.9493905560934,0.));
#668=CARTESIAN_POINT('Origin',(2.05060988697537,-26.9493905560934,0.));
#669=CARTESIAN_POINT('',(3.95060988697537,-26.9493905560934,3.25));
#670=CARTESIAN_POINT('Origin',(26.949390334559,-26.949390334559,3.25));
#671=CARTESIAN_POINT('',(28.849390334559,-26.949390334559,0.));
#672=CARTESIAN_POINT('Origin',(26.949390334559,-26.949390334559,0.));
#673=CARTESIAN_POINT('',(28.849390334559,-26.949390334559,3.25));
#674=CARTESIAN_POINT('Origin',(14.5,-14.5,0.));
#675=UNCERTAINTY_MEASURE_WITH_UNIT(LENGTH_MEASURE(0.01),#679,
'DISTANCE_ACCURACY_VALUE',
'Maximum model space distance between geometric entities at asserted c
onnectivities');
#676=UNCERTAINTY_MEASURE_WITH_UNIT(LENGTH_MEASURE(0.01),#679,
'DISTANCE_ACCURACY_VALUE',
'Maximum model space distance between geometric entities at asserted c
onnectivities');
#677=(
GEOMETRIC_REPRESENTATION_CONTEXT(3)
GLOBAL_UNCERTAINTY_ASSIGNED_CONTEXT((#675))
GLOBAL_UNIT_ASSIGNED_CONTEXT((#679,#681,#682))
REPRESENTATION_CONTEXT('','3D')
);
#678=(
GEOMETRIC_REPRESENTATION_CONTEXT(3)
GLOBAL_UNCERTAINTY_ASSIGNED_CONTEXT((#676))
GLOBAL_UNIT_ASSIGNED_CONTEXT((#679,#681,#682))
REPRESENTATION_CONTEXT('','3D')
);
#679=(
LENGTH_UNIT()
NAMED_UNIT(*)
SI_UNIT(.MILLI.,.METRE.)
);
#680=(
LENGTH_UNIT()
NAMED_UNIT(*)
SI_UNIT($,.METRE.)
);
#681=(
NAMED_UNIT(*)
PLANE_ANGLE_UNIT()
SI_UNIT($,.RADIAN.)
);
#682=(
NAMED_UNIT(*)
SI_UNIT($,.STERADIAN.)
SOLID_ANGLE_UNIT()
);
#683=SHAPE_DEFINITION_REPRESENTATION(#684,#685);
#684=PRODUCT_DEFINITION_SHAPE('',$,#687);
#685=SHAPE_REPRESENTATION('',(#407),#677);
#686=PRODUCT_DEFINITION_CONTEXT('part definition',#691,'design');
#687=PRODUCT_DEFINITION('(Non enregistr\X\E9)','(Non enregistr\X\E9)',#688,
#686);
#688=PRODUCT_DEFINITION_FORMATION('',$,#693);
#689=PRODUCT_RELATED_PRODUCT_CATEGORY('(Non enregistr\X\E9)',
'(Non enregistr\X\E9)',(#693));
#690=APPLICATION_PROTOCOL_DEFINITION('international standard',
'automotive_design',2009,#691);
#691=APPLICATION_CONTEXT(
'Core Data for Automotive Mechanical Design Process');
#692=PRODUCT_CONTEXT('part definition',#691,'mechanical');
#693=PRODUCT('(Non enregistr\X\E9)','(Non enregistr\X\E9)',$,(#692));
#694=PRESENTATION_STYLE_ASSIGNMENT((#695));
#695=SURFACE_STYLE_USAGE(.BOTH.,#696);
#696=SURFACE_SIDE_STYLE('',(#697));
#697=SURFACE_STYLE_FILL_AREA(#698);
#698=FILL_AREA_STYLE('Acier - Satin\X\E9',(#699));
#699=FILL_AREA_STYLE_COLOUR('Acier - Satin\X\E9',#700);
#700=COLOUR_RGB('Acier - Satin\X\E9',0.627450980392157,0.627450980392157,
0.627450980392157);
ENDSEC;
END-ISO-10303-21;
