ISO-10303-21;
HEADER;
/* Generated by software containing ST-Developer
 * from STEP Tools, Inc. (www.steptools.com) 
 */

FILE_DESCRIPTION(
/* description */ (''),
/* implementation_level */ '2;1');

FILE_NAME(
/* name */ 'lamelles radiateur rc v2.step',
/* time_stamp */ '2023-01-03T21:13:27+01:00',
/* author */ (''),
/* organization */ (''),
/* preprocessor_version */ 'ST-DEVELOPER v19.2',
/* originating_system */ 'Autodesk Translation Framework v11.17.0.187',

/* authorisation */ '');

FILE_SCHEMA (('AUTOMOTIVE_DESIGN { 1 0 10303 214 3 1 1 }'));
ENDSEC;

DATA;
#10=MECHANICAL_DESIGN_GEOMETRIC_PRESENTATION_REPRESENTATION('',(#13),#515);
#11=SHAPE_REPRESENTATION_RELATIONSHIP('SRR','None',#522,#12);
#12=ADVANCED_BREP_SHAPE_REPRESENTATION('',(#14),#514);
#13=STYLED_ITEM('',(#531),#14);
#14=MANIFOLD_SOLID_BREP('Corps1',#295);
#15=FACE_BOUND('',#66,.T.);
#16=FACE_BOUND('',#67,.T.);
#17=FACE_BOUND('',#68,.T.);
#18=FACE_BOUND('',#69,.T.);
#19=FACE_BOUND('',#70,.T.);
#20=FACE_BOUND('',#71,.T.);
#21=FACE_BOUND('',#72,.T.);
#22=FACE_BOUND('',#73,.T.);
#23=FACE_BOUND('',#74,.T.);
#24=FACE_BOUND('',#75,.T.);
#25=FACE_BOUND('',#76,.T.);
#26=FACE_BOUND('',#78,.T.);
#27=FACE_BOUND('',#79,.T.);
#28=FACE_BOUND('',#80,.T.);
#29=FACE_BOUND('',#81,.T.);
#30=FACE_BOUND('',#82,.T.);
#31=FACE_BOUND('',#83,.T.);
#32=FACE_BOUND('',#84,.T.);
#33=FACE_BOUND('',#85,.T.);
#34=FACE_BOUND('',#86,.T.);
#35=FACE_BOUND('',#87,.T.);
#36=FACE_BOUND('',#88,.T.);
#37=PLANE('',#345);
#38=PLANE('',#346);
#39=FACE_OUTER_BOUND('',#53,.T.);
#40=FACE_OUTER_BOUND('',#54,.T.);
#41=FACE_OUTER_BOUND('',#55,.T.);
#42=FACE_OUTER_BOUND('',#56,.T.);
#43=FACE_OUTER_BOUND('',#57,.T.);
#44=FACE_OUTER_BOUND('',#58,.T.);
#45=FACE_OUTER_BOUND('',#59,.T.);
#46=FACE_OUTER_BOUND('',#60,.T.);
#47=FACE_OUTER_BOUND('',#61,.T.);
#48=FACE_OUTER_BOUND('',#62,.T.);
#49=FACE_OUTER_BOUND('',#63,.T.);
#50=FACE_OUTER_BOUND('',#64,.T.);
#51=FACE_OUTER_BOUND('',#65,.T.);
#52=FACE_OUTER_BOUND('',#77,.T.);
#53=EDGE_LOOP('',(#197,#198,#199,#200));
#54=EDGE_LOOP('',(#201,#202,#203,#204));
#55=EDGE_LOOP('',(#205,#206,#207,#208));
#56=EDGE_LOOP('',(#209,#210,#211,#212));
#57=EDGE_LOOP('',(#213,#214,#215,#216));
#58=EDGE_LOOP('',(#217,#218,#219,#220));
#59=EDGE_LOOP('',(#221,#222,#223,#224));
#60=EDGE_LOOP('',(#225,#226,#227,#228));
#61=EDGE_LOOP('',(#229,#230,#231,#232));
#62=EDGE_LOOP('',(#233,#234,#235,#236));
#63=EDGE_LOOP('',(#237,#238,#239,#240));
#64=EDGE_LOOP('',(#241,#242,#243,#244));
#65=EDGE_LOOP('',(#245));
#66=EDGE_LOOP('',(#246));
#67=EDGE_LOOP('',(#247));
#68=EDGE_LOOP('',(#248));
#69=EDGE_LOOP('',(#249));
#70=EDGE_LOOP('',(#250));
#71=EDGE_LOOP('',(#251));
#72=EDGE_LOOP('',(#252));
#73=EDGE_LOOP('',(#253));
#74=EDGE_LOOP('',(#254));
#75=EDGE_LOOP('',(#255));
#76=EDGE_LOOP('',(#256));
#77=EDGE_LOOP('',(#257));
#78=EDGE_LOOP('',(#258));
#79=EDGE_LOOP('',(#259));
#80=EDGE_LOOP('',(#260));
#81=EDGE_LOOP('',(#261));
#82=EDGE_LOOP('',(#262));
#83=EDGE_LOOP('',(#263));
#84=EDGE_LOOP('',(#264));
#85=EDGE_LOOP('',(#265));
#86=EDGE_LOOP('',(#266));
#87=EDGE_LOOP('',(#267));
#88=EDGE_LOOP('',(#268));
#89=LINE('',#442,#101);
#90=LINE('',#448,#102);
#91=LINE('',#454,#103);
#92=LINE('',#460,#104);
#93=LINE('',#466,#105);
#94=LINE('',#472,#106);
#95=LINE('',#478,#107);
#96=LINE('',#484,#108);
#97=LINE('',#490,#109);
#98=LINE('',#496,#110);
#99=LINE('',#502,#111);
#100=LINE('',#508,#112);
#101=VECTOR('',#353,2.);
#102=VECTOR('',#360,2.);
#103=VECTOR('',#367,2.);
#104=VECTOR('',#374,2.);
#105=VECTOR('',#381,2.);
#106=VECTOR('',#388,2.);
#107=VECTOR('',#395,3.);
#108=VECTOR('',#402,3.);
#109=VECTOR('',#409,3.);
#110=VECTOR('',#416,3.);
#111=VECTOR('',#423,6.5);
#112=VECTOR('',#430,28.75);
#113=CIRCLE('',#310,2.);
#114=CIRCLE('',#311,2.);
#115=CIRCLE('',#313,2.);
#116=CIRCLE('',#314,2.);
#117=CIRCLE('',#316,2.);
#118=CIRCLE('',#317,2.);
#119=CIRCLE('',#319,2.);
#120=CIRCLE('',#320,2.);
#121=CIRCLE('',#322,2.);
#122=CIRCLE('',#323,2.);
#123=CIRCLE('',#325,2.);
#124=CIRCLE('',#326,2.);
#125=CIRCLE('',#328,3.);
#126=CIRCLE('',#329,3.);
#127=CIRCLE('',#331,3.);
#128=CIRCLE('',#332,3.);
#129=CIRCLE('',#334,3.);
#130=CIRCLE('',#335,3.);
#131=CIRCLE('',#337,3.);
#132=CIRCLE('',#338,3.);
#133=CIRCLE('',#340,6.5);
#134=CIRCLE('',#341,6.5);
#135=CIRCLE('',#343,28.75);
#136=CIRCLE('',#344,28.75);
#137=VERTEX_POINT('',#439);
#138=VERTEX_POINT('',#441);
#139=VERTEX_POINT('',#445);
#140=VERTEX_POINT('',#447);
#141=VERTEX_POINT('',#451);
#142=VERTEX_POINT('',#453);
#143=VERTEX_POINT('',#457);
#144=VERTEX_POINT('',#459);
#145=VERTEX_POINT('',#463);
#146=VERTEX_POINT('',#465);
#147=VERTEX_POINT('',#469);
#148=VERTEX_POINT('',#471);
#149=VERTEX_POINT('',#475);
#150=VERTEX_POINT('',#477);
#151=VERTEX_POINT('',#481);
#152=VERTEX_POINT('',#483);
#153=VERTEX_POINT('',#487);
#154=VERTEX_POINT('',#489);
#155=VERTEX_POINT('',#493);
#156=VERTEX_POINT('',#495);
#157=VERTEX_POINT('',#499);
#158=VERTEX_POINT('',#501);
#159=VERTEX_POINT('',#505);
#160=VERTEX_POINT('',#507);
#161=EDGE_CURVE('',#137,#137,#113,.T.);
#162=EDGE_CURVE('',#137,#138,#89,.T.);
#163=EDGE_CURVE('',#138,#138,#114,.T.);
#164=EDGE_CURVE('',#139,#139,#115,.T.);
#165=EDGE_CURVE('',#139,#140,#90,.T.);
#166=EDGE_CURVE('',#140,#140,#116,.T.);
#167=EDGE_CURVE('',#141,#141,#117,.T.);
#168=EDGE_CURVE('',#141,#142,#91,.T.);
#169=EDGE_CURVE('',#142,#142,#118,.T.);
#170=EDGE_CURVE('',#143,#143,#119,.T.);
#171=EDGE_CURVE('',#143,#144,#92,.T.);
#172=EDGE_CURVE('',#144,#144,#120,.T.);
#173=EDGE_CURVE('',#145,#145,#121,.T.);
#174=EDGE_CURVE('',#145,#146,#93,.T.);
#175=EDGE_CURVE('',#146,#146,#122,.T.);
#176=EDGE_CURVE('',#147,#147,#123,.T.);
#177=EDGE_CURVE('',#147,#148,#94,.T.);
#178=EDGE_CURVE('',#148,#148,#124,.T.);
#179=EDGE_CURVE('',#149,#149,#125,.T.);
#180=EDGE_CURVE('',#149,#150,#95,.T.);
#181=EDGE_CURVE('',#150,#150,#126,.T.);
#182=EDGE_CURVE('',#151,#151,#127,.T.);
#183=EDGE_CURVE('',#151,#152,#96,.T.);
#184=EDGE_CURVE('',#152,#152,#128,.T.);
#185=EDGE_CURVE('',#153,#153,#129,.T.);
#186=EDGE_CURVE('',#153,#154,#97,.T.);
#187=EDGE_CURVE('',#154,#154,#130,.T.);
#188=EDGE_CURVE('',#155,#155,#131,.T.);
#189=EDGE_CURVE('',#155,#156,#98,.T.);
#190=EDGE_CURVE('',#156,#156,#132,.T.);
#191=EDGE_CURVE('',#157,#157,#133,.T.);
#192=EDGE_CURVE('',#157,#158,#99,.T.);
#193=EDGE_CURVE('',#158,#158,#134,.T.);
#194=EDGE_CURVE('',#159,#159,#135,.T.);
#195=EDGE_CURVE('',#159,#160,#100,.T.);
#196=EDGE_CURVE('',#160,#160,#136,.T.);
#197=ORIENTED_EDGE('',*,*,#161,.F.);
#198=ORIENTED_EDGE('',*,*,#162,.T.);
#199=ORIENTED_EDGE('',*,*,#163,.T.);
#200=ORIENTED_EDGE('',*,*,#162,.F.);
#201=ORIENTED_EDGE('',*,*,#164,.F.);
#202=ORIENTED_EDGE('',*,*,#165,.T.);
#203=ORIENTED_EDGE('',*,*,#166,.T.);
#204=ORIENTED_EDGE('',*,*,#165,.F.);
#205=ORIENTED_EDGE('',*,*,#167,.F.);
#206=ORIENTED_EDGE('',*,*,#168,.T.);
#207=ORIENTED_EDGE('',*,*,#169,.T.);
#208=ORIENTED_EDGE('',*,*,#168,.F.);
#209=ORIENTED_EDGE('',*,*,#170,.F.);
#210=ORIENTED_EDGE('',*,*,#171,.T.);
#211=ORIENTED_EDGE('',*,*,#172,.T.);
#212=ORIENTED_EDGE('',*,*,#171,.F.);
#213=ORIENTED_EDGE('',*,*,#173,.F.);
#214=ORIENTED_EDGE('',*,*,#174,.T.);
#215=ORIENTED_EDGE('',*,*,#175,.T.);
#216=ORIENTED_EDGE('',*,*,#174,.F.);
#217=ORIENTED_EDGE('',*,*,#176,.F.);
#218=ORIENTED_EDGE('',*,*,#177,.T.);
#219=ORIENTED_EDGE('',*,*,#178,.T.);
#220=ORIENTED_EDGE('',*,*,#177,.F.);
#221=ORIENTED_EDGE('',*,*,#179,.F.);
#222=ORIENTED_EDGE('',*,*,#180,.T.);
#223=ORIENTED_EDGE('',*,*,#181,.T.);
#224=ORIENTED_EDGE('',*,*,#180,.F.);
#225=ORIENTED_EDGE('',*,*,#182,.F.);
#226=ORIENTED_EDGE('',*,*,#183,.T.);
#227=ORIENTED_EDGE('',*,*,#184,.T.);
#228=ORIENTED_EDGE('',*,*,#183,.F.);
#229=ORIENTED_EDGE('',*,*,#185,.F.);
#230=ORIENTED_EDGE('',*,*,#186,.T.);
#231=ORIENTED_EDGE('',*,*,#187,.T.);
#232=ORIENTED_EDGE('',*,*,#186,.F.);
#233=ORIENTED_EDGE('',*,*,#188,.F.);
#234=ORIENTED_EDGE('',*,*,#189,.T.);
#235=ORIENTED_EDGE('',*,*,#190,.T.);
#236=ORIENTED_EDGE('',*,*,#189,.F.);
#237=ORIENTED_EDGE('',*,*,#191,.F.);
#238=ORIENTED_EDGE('',*,*,#192,.T.);
#239=ORIENTED_EDGE('',*,*,#193,.T.);
#240=ORIENTED_EDGE('',*,*,#192,.F.);
#241=ORIENTED_EDGE('',*,*,#194,.F.);
#242=ORIENTED_EDGE('',*,*,#195,.T.);
#243=ORIENTED_EDGE('',*,*,#196,.T.);
#244=ORIENTED_EDGE('',*,*,#195,.F.);
#245=ORIENTED_EDGE('',*,*,#194,.T.);
#246=ORIENTED_EDGE('',*,*,#191,.T.);
#247=ORIENTED_EDGE('',*,*,#188,.T.);
#248=ORIENTED_EDGE('',*,*,#185,.T.);
#249=ORIENTED_EDGE('',*,*,#182,.T.);
#250=ORIENTED_EDGE('',*,*,#179,.T.);
#251=ORIENTED_EDGE('',*,*,#176,.T.);
#252=ORIENTED_EDGE('',*,*,#173,.T.);
#253=ORIENTED_EDGE('',*,*,#170,.T.);
#254=ORIENTED_EDGE('',*,*,#167,.T.);
#255=ORIENTED_EDGE('',*,*,#164,.T.);
#256=ORIENTED_EDGE('',*,*,#161,.T.);
#257=ORIENTED_EDGE('',*,*,#196,.F.);
#258=ORIENTED_EDGE('',*,*,#193,.F.);
#259=ORIENTED_EDGE('',*,*,#190,.F.);
#260=ORIENTED_EDGE('',*,*,#187,.F.);
#261=ORIENTED_EDGE('',*,*,#184,.F.);
#262=ORIENTED_EDGE('',*,*,#181,.F.);
#263=ORIENTED_EDGE('',*,*,#178,.F.);
#264=ORIENTED_EDGE('',*,*,#175,.F.);
#265=ORIENTED_EDGE('',*,*,#172,.F.);
#266=ORIENTED_EDGE('',*,*,#169,.F.);
#267=ORIENTED_EDGE('',*,*,#166,.F.);
#268=ORIENTED_EDGE('',*,*,#163,.F.);
#269=CYLINDRICAL_SURFACE('',#309,2.);
#270=CYLINDRICAL_SURFACE('',#312,2.);
#271=CYLINDRICAL_SURFACE('',#315,2.);
#272=CYLINDRICAL_SURFACE('',#318,2.);
#273=CYLINDRICAL_SURFACE('',#321,2.);
#274=CYLINDRICAL_SURFACE('',#324,2.);
#275=CYLINDRICAL_SURFACE('',#327,3.);
#276=CYLINDRICAL_SURFACE('',#330,3.);
#277=CYLINDRICAL_SURFACE('',#333,3.);
#278=CYLINDRICAL_SURFACE('',#336,3.);
#279=CYLINDRICAL_SURFACE('',#339,6.5);
#280=CYLINDRICAL_SURFACE('',#342,28.75);
#281=ADVANCED_FACE('',(#39),#269,.F.);
#282=ADVANCED_FACE('',(#40),#270,.F.);
#283=ADVANCED_FACE('',(#41),#271,.F.);
#284=ADVANCED_FACE('',(#42),#272,.F.);
#285=ADVANCED_FACE('',(#43),#273,.F.);
#286=ADVANCED_FACE('',(#44),#274,.F.);
#287=ADVANCED_FACE('',(#45),#275,.F.);
#288=ADVANCED_FACE('',(#46),#276,.F.);
#289=ADVANCED_FACE('',(#47),#277,.F.);
#290=ADVANCED_FACE('',(#48),#278,.F.);
#291=ADVANCED_FACE('',(#49),#279,.F.);
#292=ADVANCED_FACE('',(#50),#280,.T.);
#293=ADVANCED_FACE('',(#51,#15,#16,#17,#18,#19,#20,#21,#22,#23,#24,#25),
#37,.T.);
#294=ADVANCED_FACE('',(#52,#26,#27,#28,#29,#30,#31,#32,#33,#34,#35,#36),
#38,.F.);
#295=CLOSED_SHELL('',(#281,#282,#283,#284,#285,#286,#287,#288,#289,#290,
#291,#292,#293,#294));
#296=DERIVED_UNIT_ELEMENT(#298,1.);
#297=DERIVED_UNIT_ELEMENT(#517,-3.);
#298=(
MASS_UNIT()
NAMED_UNIT(*)
SI_UNIT(.KILO.,.GRAM.)
);
#299=DERIVED_UNIT((#296,#297));
#300=MEASURE_REPRESENTATION_ITEM('density measure',
POSITIVE_RATIO_MEASURE(7850.),#299);
#301=PROPERTY_DEFINITION_REPRESENTATION(#306,#303);
#302=PROPERTY_DEFINITION_REPRESENTATION(#307,#304);
#303=REPRESENTATION('material name',(#305),#514);
#304=REPRESENTATION('density',(#300),#514);
#305=DESCRIPTIVE_REPRESENTATION_ITEM('Acier','Acier');
#306=PROPERTY_DEFINITION('material property','material name',#524);
#307=PROPERTY_DEFINITION('material property','density of part',#524);
#308=AXIS2_PLACEMENT_3D('placement',#437,#347,#348);
#309=AXIS2_PLACEMENT_3D('',#438,#349,#350);
#310=AXIS2_PLACEMENT_3D('',#440,#351,#352);
#311=AXIS2_PLACEMENT_3D('',#443,#354,#355);
#312=AXIS2_PLACEMENT_3D('',#444,#356,#357);
#313=AXIS2_PLACEMENT_3D('',#446,#358,#359);
#314=AXIS2_PLACEMENT_3D('',#449,#361,#362);
#315=AXIS2_PLACEMENT_3D('',#450,#363,#364);
#316=AXIS2_PLACEMENT_3D('',#452,#365,#366);
#317=AXIS2_PLACEMENT_3D('',#455,#368,#369);
#318=AXIS2_PLACEMENT_3D('',#456,#370,#371);
#319=AXIS2_PLACEMENT_3D('',#458,#372,#373);
#320=AXIS2_PLACEMENT_3D('',#461,#375,#376);
#321=AXIS2_PLACEMENT_3D('',#462,#377,#378);
#322=AXIS2_PLACEMENT_3D('',#464,#379,#380);
#323=AXIS2_PLACEMENT_3D('',#467,#382,#383);
#324=AXIS2_PLACEMENT_3D('',#468,#384,#385);
#325=AXIS2_PLACEMENT_3D('',#470,#386,#387);
#326=AXIS2_PLACEMENT_3D('',#473,#389,#390);
#327=AXIS2_PLACEMENT_3D('',#474,#391,#392);
#328=AXIS2_PLACEMENT_3D('',#476,#393,#394);
#329=AXIS2_PLACEMENT_3D('',#479,#396,#397);
#330=AXIS2_PLACEMENT_3D('',#480,#398,#399);
#331=AXIS2_PLACEMENT_3D('',#482,#400,#401);
#332=AXIS2_PLACEMENT_3D('',#485,#403,#404);
#333=AXIS2_PLACEMENT_3D('',#486,#405,#406);
#334=AXIS2_PLACEMENT_3D('',#488,#407,#408);
#335=AXIS2_PLACEMENT_3D('',#491,#410,#411);
#336=AXIS2_PLACEMENT_3D('',#492,#412,#413);
#337=AXIS2_PLACEMENT_3D('',#494,#414,#415);
#338=AXIS2_PLACEMENT_3D('',#497,#417,#418);
#339=AXIS2_PLACEMENT_3D('',#498,#419,#420);
#340=AXIS2_PLACEMENT_3D('',#500,#421,#422);
#341=AXIS2_PLACEMENT_3D('',#503,#424,#425);
#342=AXIS2_PLACEMENT_3D('',#504,#426,#427);
#343=AXIS2_PLACEMENT_3D('',#506,#428,#429);
#344=AXIS2_PLACEMENT_3D('',#509,#431,#432);
#345=AXIS2_PLACEMENT_3D('',#510,#433,#434);
#346=AXIS2_PLACEMENT_3D('',#511,#435,#436);
#347=DIRECTION('axis',(0.,0.,1.));
#348=DIRECTION('refdir',(1.,0.,0.));
#349=DIRECTION('center_axis',(0.,1.,0.));
#350=DIRECTION('ref_axis',(1.,0.,0.));
#351=DIRECTION('center_axis',(0.,-1.,0.));
#352=DIRECTION('ref_axis',(1.,0.,0.));
#353=DIRECTION('',(0.,-1.,0.));
#354=DIRECTION('center_axis',(0.,-1.,0.));
#355=DIRECTION('ref_axis',(1.,0.,0.));
#356=DIRECTION('center_axis',(0.,1.,0.));
#357=DIRECTION('ref_axis',(1.,0.,0.));
#358=DIRECTION('center_axis',(0.,-1.,0.));
#359=DIRECTION('ref_axis',(1.,0.,0.));
#360=DIRECTION('',(0.,-1.,0.));
#361=DIRECTION('center_axis',(0.,-1.,0.));
#362=DIRECTION('ref_axis',(1.,0.,0.));
#363=DIRECTION('center_axis',(0.,1.,0.));
#364=DIRECTION('ref_axis',(1.,0.,0.));
#365=DIRECTION('center_axis',(0.,-1.,0.));
#366=DIRECTION('ref_axis',(1.,0.,0.));
#367=DIRECTION('',(0.,-1.,0.));
#368=DIRECTION('center_axis',(0.,-1.,0.));
#369=DIRECTION('ref_axis',(1.,0.,0.));
#370=DIRECTION('center_axis',(0.,1.,0.));
#371=DIRECTION('ref_axis',(1.,0.,0.));
#372=DIRECTION('center_axis',(0.,-1.,0.));
#373=DIRECTION('ref_axis',(1.,0.,0.));
#374=DIRECTION('',(0.,-1.,0.));
#375=DIRECTION('center_axis',(0.,-1.,0.));
#376=DIRECTION('ref_axis',(1.,0.,0.));
#377=DIRECTION('center_axis',(0.,1.,0.));
#378=DIRECTION('ref_axis',(1.,0.,0.));
#379=DIRECTION('center_axis',(0.,-1.,0.));
#380=DIRECTION('ref_axis',(1.,0.,0.));
#381=DIRECTION('',(0.,-1.,0.));
#382=DIRECTION('center_axis',(0.,-1.,0.));
#383=DIRECTION('ref_axis',(1.,0.,0.));
#384=DIRECTION('center_axis',(0.,1.,0.));
#385=DIRECTION('ref_axis',(1.,0.,0.));
#386=DIRECTION('center_axis',(0.,-1.,0.));
#387=DIRECTION('ref_axis',(1.,0.,0.));
#388=DIRECTION('',(0.,-1.,0.));
#389=DIRECTION('center_axis',(0.,-1.,0.));
#390=DIRECTION('ref_axis',(1.,0.,0.));
#391=DIRECTION('center_axis',(0.,1.,0.));
#392=DIRECTION('ref_axis',(1.,0.,0.));
#393=DIRECTION('center_axis',(0.,-1.,0.));
#394=DIRECTION('ref_axis',(1.,0.,0.));
#395=DIRECTION('',(0.,-1.,0.));
#396=DIRECTION('center_axis',(0.,-1.,0.));
#397=DIRECTION('ref_axis',(1.,0.,0.));
#398=DIRECTION('center_axis',(0.,1.,0.));
#399=DIRECTION('ref_axis',(1.,0.,0.));
#400=DIRECTION('center_axis',(0.,-1.,0.));
#401=DIRECTION('ref_axis',(1.,0.,0.));
#402=DIRECTION('',(0.,-1.,0.));
#403=DIRECTION('center_axis',(0.,-1.,0.));
#404=DIRECTION('ref_axis',(1.,0.,0.));
#405=DIRECTION('center_axis',(0.,1.,0.));
#406=DIRECTION('ref_axis',(1.,0.,0.));
#407=DIRECTION('center_axis',(0.,-1.,0.));
#408=DIRECTION('ref_axis',(1.,0.,0.));
#409=DIRECTION('',(0.,-1.,0.));
#410=DIRECTION('center_axis',(0.,-1.,0.));
#411=DIRECTION('ref_axis',(1.,0.,0.));
#412=DIRECTION('center_axis',(0.,1.,0.));
#413=DIRECTION('ref_axis',(1.,0.,0.));
#414=DIRECTION('center_axis',(0.,-1.,0.));
#415=DIRECTION('ref_axis',(1.,0.,0.));
#416=DIRECTION('',(0.,-1.,0.));
#417=DIRECTION('center_axis',(0.,-1.,0.));
#418=DIRECTION('ref_axis',(1.,0.,0.));
#419=DIRECTION('center_axis',(0.,1.,0.));
#420=DIRECTION('ref_axis',(1.,0.,0.));
#421=DIRECTION('center_axis',(0.,-1.,0.));
#422=DIRECTION('ref_axis',(1.,0.,0.));
#423=DIRECTION('',(0.,-1.,0.));
#424=DIRECTION('center_axis',(0.,-1.,0.));
#425=DIRECTION('ref_axis',(1.,0.,0.));
#426=DIRECTION('center_axis',(0.,1.,0.));
#427=DIRECTION('ref_axis',(1.,0.,0.));
#428=DIRECTION('center_axis',(0.,1.,0.));
#429=DIRECTION('ref_axis',(1.,0.,0.));
#430=DIRECTION('',(0.,-1.,0.));
#431=DIRECTION('center_axis',(0.,1.,0.));
#432=DIRECTION('ref_axis',(1.,0.,0.));
#433=DIRECTION('center_axis',(0.,1.,0.));
#434=DIRECTION('ref_axis',(1.,0.,0.));
#435=DIRECTION('center_axis',(0.,1.,0.));
#436=DIRECTION('ref_axis',(1.,0.,0.));
#437=CARTESIAN_POINT('',(0.,0.,0.));
#438=CARTESIAN_POINT('Origin',(-20.3515969889343,0.,11.75));
#439=CARTESIAN_POINT('',(-22.3515969889343,0.5,11.75));
#440=CARTESIAN_POINT('Origin',(-20.3515969889343,0.5,11.75));
#441=CARTESIAN_POINT('',(-22.3515969889343,0.,11.75));
#442=CARTESIAN_POINT('',(-22.3515969889343,0.,11.75));
#443=CARTESIAN_POINT('Origin',(-20.3515969889343,0.,11.75));
#444=CARTESIAN_POINT('Origin',(-2.46519032881566E-31,0.,23.5));
#445=CARTESIAN_POINT('',(-2.,0.5,23.5));
#446=CARTESIAN_POINT('Origin',(-2.46519032881566E-31,0.5,23.5));
#447=CARTESIAN_POINT('',(-2.,0.,23.5));
#448=CARTESIAN_POINT('',(-2.,0.,23.5));
#449=CARTESIAN_POINT('Origin',(-2.46519032881566E-31,0.,23.5));
#450=CARTESIAN_POINT('Origin',(-20.3515969889343,0.,-11.75));
#451=CARTESIAN_POINT('',(-22.3515969889343,0.5,-11.75));
#452=CARTESIAN_POINT('Origin',(-20.3515969889343,0.5,-11.75));
#453=CARTESIAN_POINT('',(-22.3515969889343,0.,-11.75));
#454=CARTESIAN_POINT('',(-22.3515969889343,0.,-11.75));
#455=CARTESIAN_POINT('Origin',(-20.3515969889343,0.,-11.75));
#456=CARTESIAN_POINT('Origin',(-3.27164778640227E-15,0.,-23.5));
#457=CARTESIAN_POINT('',(-2.,0.5,-23.5));
#458=CARTESIAN_POINT('Origin',(-3.27164778640227E-15,0.5,-23.5));
#459=CARTESIAN_POINT('',(-2.,0.,-23.5));
#460=CARTESIAN_POINT('',(-2.,0.,-23.5));
#461=CARTESIAN_POINT('Origin',(-3.27164778640227E-15,0.,-23.5));
#462=CARTESIAN_POINT('Origin',(20.3515969889343,0.,-11.75));
#463=CARTESIAN_POINT('',(18.3515969889343,0.5,-11.75));
#464=CARTESIAN_POINT('Origin',(20.3515969889343,0.5,-11.75));
#465=CARTESIAN_POINT('',(18.3515969889343,0.,-11.75));
#466=CARTESIAN_POINT('',(18.3515969889343,0.,-11.75));
#467=CARTESIAN_POINT('Origin',(20.3515969889343,0.,-11.75));
#468=CARTESIAN_POINT('Origin',(20.3515969889343,0.,11.75));
#469=CARTESIAN_POINT('',(18.3515969889343,0.5,11.75));
#470=CARTESIAN_POINT('Origin',(20.3515969889343,0.5,11.75));
#471=CARTESIAN_POINT('',(18.3515969889343,0.,11.75));
#472=CARTESIAN_POINT('',(18.3515969889343,0.,11.75));
#473=CARTESIAN_POINT('Origin',(20.3515969889343,0.,11.75));
#474=CARTESIAN_POINT('Origin',(9.72271824131503,0.,-9.72271824131503));
#475=CARTESIAN_POINT('',(6.72271824131503,0.5,-9.72271824131503));
#476=CARTESIAN_POINT('Origin',(9.72271824131503,0.5,-9.72271824131503));
#477=CARTESIAN_POINT('',(6.72271824131503,0.,-9.72271824131503));
#478=CARTESIAN_POINT('',(6.72271824131503,0.,-9.72271824131503));
#479=CARTESIAN_POINT('Origin',(9.72271824131503,0.,-9.72271824131503));
#480=CARTESIAN_POINT('Origin',(9.72271824131503,0.,9.72271824131503));
#481=CARTESIAN_POINT('',(6.72271824131503,0.5,9.72271824131503));
#482=CARTESIAN_POINT('Origin',(9.72271824131503,0.5,9.72271824131503));
#483=CARTESIAN_POINT('',(6.72271824131503,0.,9.72271824131503));
#484=CARTESIAN_POINT('',(6.72271824131503,0.,9.72271824131503));
#485=CARTESIAN_POINT('Origin',(9.72271824131503,0.,9.72271824131503));
#486=CARTESIAN_POINT('Origin',(-9.72271824131503,0.,9.72271824131503));
#487=CARTESIAN_POINT('',(-12.722718241315,0.5,9.72271824131503));
#488=CARTESIAN_POINT('Origin',(-9.72271824131503,0.5,9.72271824131503));
#489=CARTESIAN_POINT('',(-12.722718241315,0.,9.72271824131503));
#490=CARTESIAN_POINT('',(-12.722718241315,0.,9.72271824131503));
#491=CARTESIAN_POINT('Origin',(-9.72271824131503,0.,9.72271824131503));
#492=CARTESIAN_POINT('Origin',(-9.72271824131503,0.,-9.72271824131503));
#493=CARTESIAN_POINT('',(-12.722718241315,0.5,-9.72271824131503));
#494=CARTESIAN_POINT('Origin',(-9.72271824131503,0.5,-9.72271824131503));
#495=CARTESIAN_POINT('',(-12.722718241315,0.,-9.72271824131503));
#496=CARTESIAN_POINT('',(-12.722718241315,0.,-9.72271824131503));
#497=CARTESIAN_POINT('Origin',(-9.72271824131503,0.,-9.72271824131503));
#498=CARTESIAN_POINT('Origin',(0.,0.,0.));
#499=CARTESIAN_POINT('',(-6.5,0.5,7.9602041944578E-16));
#500=CARTESIAN_POINT('Origin',(0.,0.5,0.));
#501=CARTESIAN_POINT('',(-6.5,0.,7.9602041944578E-16));
#502=CARTESIAN_POINT('',(-6.5,0.,7.9602041944578E-16));
#503=CARTESIAN_POINT('Origin',(0.,0.,0.));
#504=CARTESIAN_POINT('Origin',(0.,0.,0.));
#505=CARTESIAN_POINT('',(-28.75,0.5,3.52085954754864E-15));
#506=CARTESIAN_POINT('Origin',(0.,0.5,0.));
#507=CARTESIAN_POINT('',(-28.75,0.,3.52085954754864E-15));
#508=CARTESIAN_POINT('',(-28.75,0.,3.52085954754864E-15));
#509=CARTESIAN_POINT('Origin',(0.,0.,0.));
#510=CARTESIAN_POINT('Origin',(0.,0.5,0.));
#511=CARTESIAN_POINT('Origin',(0.,0.,0.));
#512=UNCERTAINTY_MEASURE_WITH_UNIT(LENGTH_MEASURE(0.01),#516,
'DISTANCE_ACCURACY_VALUE',
'Maximum model space distance between geometric entities at asserted c
onnectivities');
#513=UNCERTAINTY_MEASURE_WITH_UNIT(LENGTH_MEASURE(0.01),#516,
'DISTANCE_ACCURACY_VALUE',
'Maximum model space distance between geometric entities at asserted c
onnectivities');
#514=(
GEOMETRIC_REPRESENTATION_CONTEXT(3)
GLOBAL_UNCERTAINTY_ASSIGNED_CONTEXT((#512))
GLOBAL_UNIT_ASSIGNED_CONTEXT((#516,#518,#519))
REPRESENTATION_CONTEXT('','3D')
);
#515=(
GEOMETRIC_REPRESENTATION_CONTEXT(3)
GLOBAL_UNCERTAINTY_ASSIGNED_CONTEXT((#513))
GLOBAL_UNIT_ASSIGNED_CONTEXT((#516,#518,#519))
REPRESENTATION_CONTEXT('','3D')
);
#516=(
LENGTH_UNIT()
NAMED_UNIT(*)
SI_UNIT(.MILLI.,.METRE.)
);
#517=(
LENGTH_UNIT()
NAMED_UNIT(*)
SI_UNIT($,.METRE.)
);
#518=(
NAMED_UNIT(*)
PLANE_ANGLE_UNIT()
SI_UNIT($,.RADIAN.)
);
#519=(
NAMED_UNIT(*)
SI_UNIT($,.STERADIAN.)
SOLID_ANGLE_UNIT()
);
#520=SHAPE_DEFINITION_REPRESENTATION(#521,#522);
#521=PRODUCT_DEFINITION_SHAPE('',$,#524);
#522=SHAPE_REPRESENTATION('',(#308),#514);
#523=PRODUCT_DEFINITION_CONTEXT('part definition',#528,'design');
#524=PRODUCT_DEFINITION('lamelles radiateur rc',
'lamelles radiateur rc v2',#525,#523);
#525=PRODUCT_DEFINITION_FORMATION('',$,#530);
#526=PRODUCT_RELATED_PRODUCT_CATEGORY('lamelles radiateur rc v2',
'lamelles radiateur rc v2',(#530));
#527=APPLICATION_PROTOCOL_DEFINITION('international standard',
'automotive_design',2009,#528);
#528=APPLICATION_CONTEXT(
'Core Data for Automotive Mechanical Design Process');
#529=PRODUCT_CONTEXT('part definition',#528,'mechanical');
#530=PRODUCT('lamelles radiateur rc','lamelles radiateur rc v2',$,(#529));
#531=PRESENTATION_STYLE_ASSIGNMENT((#532));
#532=SURFACE_STYLE_USAGE(.BOTH.,#533);
#533=SURFACE_SIDE_STYLE('',(#534));
#534=SURFACE_STYLE_FILL_AREA(#535);
#535=FILL_AREA_STYLE('Acier - Satin\X\E9',(#536));
#536=FILL_AREA_STYLE_COLOUR('Acier - Satin\X\E9',#537);
#537=COLOUR_RGB('Acier - Satin\X\E9',0.627450980392157,0.627450980392157,
0.627450980392157);
ENDSEC;
END-ISO-10303-21;
