ISO-10303-21;
HEADER;
FILE_DESCRIPTION( ( 'STEP AP203' ), '1' );
FILE_NAME( ' ', '  ', ( '  ' ), ( '  ' ), 'PSStep 10.1', '  ', '  ' );
FILE_SCHEMA( ( 'CONFIG_CONTROL_DESIGN' ) );
ENDSEC;
DATA;
#1 = DESIGN_CONTEXT( '', #27, 'design' );
#2 = APPLICATION_PROTOCOL_DEFINITION( 'INTERNATIONAL STANDARD', 'config_control_design', 1994, #27 );
#3 = PRODUCT_CATEGORY_RELATIONSHIP( 'NONE', 'NONE', #28, #29 );
#4 = DATE_AND_TIME( #30, #31 );
#5 = DATE_TIME_ROLE( 'creation_date' );
#6 = DATE_TIME_ROLE( 'classification_date' );
#7 = PERSON_AND_ORGANIZATION_ROLE( 'creator' );
#8 = PERSON_AND_ORGANIZATION_ROLE( 'design_supplier' );
#9 = PERSON_AND_ORGANIZATION_ROLE( 'classification_officer' );
#10 = PERSON_AND_ORGANIZATION_ROLE( 'design_owner' );
#11 = APPROVAL_PERSON_ORGANIZATION( #32, #33, #34 );
#12 = APPROVAL_DATE_TIME( #4, #33 );
#13 = CC_DESIGN_APPROVAL( #33, ( #35, #36, #37 ) );
#14 = CC_DESIGN_DATE_AND_TIME_ASSIGNMENT( #4, #5, ( #37 ) );
#15 = CC_DESIGN_DATE_AND_TIME_ASSIGNMENT( #4, #6, ( #35 ) );
#16 = CC_DESIGN_PERSON_AND_ORGANIZATION_ASSIGNMENT( #32, #10, ( #38 ) );
#17 = CC_DESIGN_PERSON_AND_ORGANIZATION_ASSIGNMENT( #32, #7, ( #37 ) );
#18 = CC_DESIGN_PERSON_AND_ORGANIZATION_ASSIGNMENT( #32, #7, ( #36 ) );
#19 = CC_DESIGN_PERSON_AND_ORGANIZATION_ASSIGNMENT( #32, #8, ( #36 ) );
#20 = CC_DESIGN_SECURITY_CLASSIFICATION( #35, ( #36 ) );
#21 = CC_DESIGN_PERSON_AND_ORGANIZATION_ASSIGNMENT( #32, #9, ( #35 ) );
#22 = SHAPE_DEFINITION_REPRESENTATION( #39, #40 );
#23 =  ( GEOMETRIC_REPRESENTATION_CONTEXT( 3 )GLOBAL_UNCERTAINTY_ASSIGNED_CONTEXT( ( #43 ) )GLOBAL_UNIT_ASSIGNED_CONTEXT( ( #45, #46, #47 ) )REPRESENTATION_CONTEXT( 'NONE', 'WORKSPACE' ) );
#27 = APPLICATION_CONTEXT( 'CONFIGURATION CONTROLLED 3D DESIGNS OF MECHANICAL PARTS AND ASSEMBLIES' );
#28 = PRODUCT_CATEGORY( 'part', 'NONE' );
#29 = PRODUCT_RELATED_PRODUCT_CATEGORY( 'detail', ' ', ( #38 ) );
#30 = CALENDAR_DATE( 2023, 27, 0 );
#31 = LOCAL_TIME( 16, 44, 9.00000000000000, #49 );
#32 = PERSON_AND_ORGANIZATION( #50, #51 );
#33 = APPROVAL( #52, 'SOLID MODEL' );
#34 = APPROVAL_ROLE( 'APPROVED' );
#35 = SECURITY_CLASSIFICATION( '', '', #53 );
#36 = PRODUCT_DEFINITION_FORMATION_WITH_SPECIFIED_SOURCE( ' ', 'NONE', #38, .NOT_KNOWN. );
#37 = PRODUCT_DEFINITION( 'NONE', 'NONE', #36, #1 );
#38 = PRODUCT( '1', '1', 'PART-1-DESC', ( #54 ) );
#39 = PRODUCT_DEFINITION_SHAPE( 'NONE', 'NONE', #37 );
#40 = ADVANCED_BREP_SHAPE_REPRESENTATION( '1', ( #55, #56 ), #23 );
#43 = UNCERTAINTY_MEASURE_WITH_UNIT( LENGTH_MEASURE( 0.00100000000000000 ), #45, '', '' );
#45 =  ( CONVERSION_BASED_UNIT( 'MILLIMETRE', #59 )LENGTH_UNIT(  )NAMED_UNIT( #62 ) );
#46 =  ( NAMED_UNIT( #64 )PLANE_ANGLE_UNIT(  )SI_UNIT( $, .RADIAN. ) );
#47 =  ( NAMED_UNIT( #64 )SI_UNIT( $, .STERADIAN. )SOLID_ANGLE_UNIT(  ) );
#49 = COORDINATED_UNIVERSAL_TIME_OFFSET( 1, 0, .AHEAD. );
#50 = PERSON( '', 'UNSPECIFIED', $, $, $, $ );
#51 = ORGANIZATION( 'UNSPECIFIED', 'UNSPECIFIED', 'UNSPECIFIED' );
#52 = APPROVAL_STATUS( 'approved' );
#53 = SECURITY_CLASSIFICATION_LEVEL( 'unclassified' );
#54 = MECHANICAL_CONTEXT( '', #27, 'mechanical' );
#55 = MANIFOLD_SOLID_BREP( '1', #70 );
#56 = AXIS2_PLACEMENT_3D( '', #71, #72, #73 );
#59 = LENGTH_MEASURE_WITH_UNIT( LENGTH_MEASURE( 1.00000000000000 ), #74 );
#62 = DIMENSIONAL_EXPONENTS( 1.00000000000000, 0.000000000000000, 0.000000000000000, 0.000000000000000, 0.000000000000000, 0.000000000000000, 0.000000000000000 );
#64 = DIMENSIONAL_EXPONENTS( 0.000000000000000, 0.000000000000000, 0.000000000000000, 0.000000000000000, 0.000000000000000, 0.000000000000000, 0.000000000000000 );
#70 = CLOSED_SHELL( '', ( #75, #76, #77, #78, #79, #80, #81, #82, #83 ) );
#71 = CARTESIAN_POINT( '', ( 0.000000000000000, 0.000000000000000, 0.000000000000000 ) );
#72 = DIRECTION( '', ( 0.000000000000000, 0.000000000000000, 1.00000000000000 ) );
#73 = DIRECTION( '', ( 1.00000000000000, 0.000000000000000, 0.000000000000000 ) );
#74 =  ( LENGTH_UNIT(  )NAMED_UNIT( #62 )SI_UNIT( .MILLI., .METRE. ) );
#75 = ADVANCED_FACE( '', ( #85, #86 ), #87, .T. );
#76 = ADVANCED_FACE( '', ( #88, #89 ), #90, .F. );
#77 = ADVANCED_FACE( '', ( #91, #92 ), #93, .F. );
#78 = ADVANCED_FACE( '', ( #94, #95 ), #96, .T. );
#79 = ADVANCED_FACE( '', ( #97 ), #98, .T. );
#80 = ADVANCED_FACE( '', ( #99, #100 ), #101, .T. );
#81 = ADVANCED_FACE( '', ( #102, #103 ), #104, .T. );
#82 = ADVANCED_FACE( '', ( #105 ), #106, .F. );
#83 = ADVANCED_FACE( '', ( #107, #108 ), #109, .T. );
#85 = FACE_OUTER_BOUND( '', #110, .T. );
#86 = FACE_OUTER_BOUND( '', #111, .T. );
#87 = CYLINDRICAL_SURFACE( '', #112, 30.0000000000000 );
#88 = FACE_OUTER_BOUND( '', #113, .T. );
#89 = FACE_OUTER_BOUND( '', #114, .T. );
#90 = TOROIDAL_SURFACE( '', #115, 17.8500000000000, 0.200000000000000 );
#91 = FACE_OUTER_BOUND( '', #116, .T. );
#92 = FACE_OUTER_BOUND( '', #117, .T. );
#93 = TOROIDAL_SURFACE( '', #118, 25.4661209628000, 6.19999999998000 );
#94 = FACE_BOUND( '', #119, .T. );
#95 = FACE_OUTER_BOUND( '', #120, .T. );
#96 = CONICAL_SURFACE( '', #121, 25.5858227219000, 0.785398163397000 );
#97 = FACE_OUTER_BOUND( '', #122, .T. );
#98 = PLANE( '', #123 );
#99 = FACE_BOUND( '', #124, .T. );
#100 = FACE_OUTER_BOUND( '', #125, .T. );
#101 = CONICAL_SURFACE( '', #126, 17.6500000000000, 0.523598775598000 );
#102 = FACE_OUTER_BOUND( '', #127, .T. );
#103 = FACE_OUTER_BOUND( '', #128, .T. );
#104 = CYLINDRICAL_SURFACE( '', #129, 17.6500000000000 );
#105 = FACE_OUTER_BOUND( '', #130, .T. );
#106 = PLANE( '', #131 );
#107 = FACE_BOUND( '', #132, .T. );
#108 = FACE_OUTER_BOUND( '', #133, .T. );
#109 = CONICAL_SURFACE( '', #134, 0.999999999999103, 0.785398163397000 );
#110 = EDGE_LOOP( '', ( #135 ) );
#111 = EDGE_LOOP( '', ( #136 ) );
#112 = AXIS2_PLACEMENT_3D( '', #137, #138, #139 );
#113 = EDGE_LOOP( '', ( #140 ) );
#114 = EDGE_LOOP( '', ( #141 ) );
#115 = AXIS2_PLACEMENT_3D( '', #142, #143, #144 );
#116 = EDGE_LOOP( '', ( #145 ) );
#117 = EDGE_LOOP( '', ( #146, #147 ) );
#118 = AXIS2_PLACEMENT_3D( '', #148, #149, #150 );
#119 = EDGE_LOOP( '', ( #151, #152 ) );
#120 = EDGE_LOOP( '', ( #153 ) );
#121 = AXIS2_PLACEMENT_3D( '', #154, #155, #156 );
#122 = EDGE_LOOP( '', ( #157 ) );
#123 = AXIS2_PLACEMENT_3D( '', #158, #159, #160 );
#124 = EDGE_LOOP( '', ( #161 ) );
#125 = EDGE_LOOP( '', ( #162 ) );
#126 = AXIS2_PLACEMENT_3D( '', #163, #164, #165 );
#127 = EDGE_LOOP( '', ( #166 ) );
#128 = EDGE_LOOP( '', ( #167 ) );
#129 = AXIS2_PLACEMENT_3D( '', #168, #169, #170 );
#130 = EDGE_LOOP( '', ( #171 ) );
#131 = AXIS2_PLACEMENT_3D( '', #172, #173, #174 );
#132 = EDGE_LOOP( '', ( #175 ) );
#133 = EDGE_LOOP( '', ( #176 ) );
#134 = AXIS2_PLACEMENT_3D( '', #177, #178, #179 );
#135 = ORIENTED_EDGE( '', *, *, #180, .T. );
#136 = ORIENTED_EDGE( '', *, *, #181, .F. );
#137 = CARTESIAN_POINT( '', ( -2.50005688564000, -0.000193878983749000, 2.10000000000000 ) );
#138 = DIRECTION( '', ( 0.000000000000000, -0.000000000000000, 1.00000000000000 ) );
#139 = DIRECTION( '', ( -0.707106781187048, -0.707106781186047, 0.000000000000000 ) );
#140 = ORIENTED_EDGE( '', *, *, #182, .F. );
#141 = ORIENTED_EDGE( '', *, *, #183, .F. );
#142 = CARTESIAN_POINT( '', ( -2.50005688564000, -0.000193878983749000, -2.60849153574381 ) );
#143 = DIRECTION( '', ( -0.000000000000000, 0.000000000000000, -1.00000000000000 ) );
#144 = DIRECTION( '', ( -1.00000000000000, 0.000000000000000, 0.000000000000000 ) );
#145 = ORIENTED_EDGE( '', *, *, #184, .T. );
#146 = ORIENTED_EDGE( '', *, *, #185, .F. );
#147 = ORIENTED_EDGE( '', *, *, #186, .F. );
#148 = CARTESIAN_POINT( '', ( -2.50005688564000, -0.000193878983751000, -3.80000000000000 ) );
#149 = DIRECTION( '', ( -0.000000000000000, 0.000000000000000, -1.00000000000000 ) );
#150 = DIRECTION( '', ( -0.707106781187047, -0.707106781186048, 0.000000000000000 ) );
#151 = ORIENTED_EDGE( '', *, *, #185, .T. );
#152 = ORIENTED_EDGE( '', *, *, #186, .T. );
#153 = ORIENTED_EDGE( '', *, *, #180, .F. );
#154 = CARTESIAN_POINT( '', ( -2.50005688564000, -0.000193878983749000, -9.99889032608000 ) );
#155 = DIRECTION( '', ( -0.000000000000000, -0.000000000000000, -1.00000000000000 ) );
#156 = DIRECTION( '', ( -0.707106781187047, -0.707106781186048, 0.000000000000000 ) );
#157 = ORIENTED_EDGE( '', *, *, #181, .T. );
#158 = CARTESIAN_POINT( '', ( -10.9462428199000, -28.7866827785000, -17.0000000000000 ) );
#159 = DIRECTION( '', ( 0.000000000000000, 0.000000000000000, -1.00000000000000 ) );
#160 = DIRECTION( '', ( 0.000000000000000, -1.00000000000000, 0.000000000000000 ) );
#161 = ORIENTED_EDGE( '', *, *, #183, .T. );
#162 = ORIENTED_EDGE( '', *, *, #184, .F. );
#163 = CARTESIAN_POINT( '', ( -2.50005688564000, -0.000193878983749000, -2.66208137423000 ) );
#164 = DIRECTION( '', ( -0.000000000000000, -0.000000000000000, -1.00000000000000 ) );
#165 = DIRECTION( '', ( -0.707106781187048, -0.707106781186048, 0.000000000000000 ) );
#166 = ORIENTED_EDGE( '', *, *, #182, .T. );
#167 = ORIENTED_EDGE( '', *, *, #187, .T. );
#168 = CARTESIAN_POINT( '', ( -2.50005688564000, -0.000193878983749000, 2.10000000000000 ) );
#169 = DIRECTION( '', ( 0.000000000000000, -0.000000000000000, 1.00000000000000 ) );
#170 = DIRECTION( '', ( -0.707106781187048, -0.707106781186048, 0.000000000000000 ) );
#171 = ORIENTED_EDGE( '', *, *, #188, .F. );
#172 = CARTESIAN_POINT( '', ( -2.50005688564000, -0.000193878983748000, 21.2000000000000 ) );
#173 = DIRECTION( '', ( 0.000000000000000, 0.000000000000000, -1.00000000000000 ) );
#174 = DIRECTION( '', ( 0.000000000000000, -1.00000000000000, 0.000000000000000 ) );
#175 = ORIENTED_EDGE( '', *, *, #188, .T. );
#176 = ORIENTED_EDGE( '', *, *, #187, .F. );
#177 = CARTESIAN_POINT( '', ( -2.50005688564000, -0.000193878983751822, 32.8500000000000 ) );
#178 = DIRECTION( '', ( -7.20802793144663E-016, 2.15926739388208E-016, -1.00000000000000 ) );
#179 = DIRECTION( '', ( -0.258819045102052, 0.965925826289194, 3.95126704790079E-016 ) );
#180 = EDGE_CURVE( '', #189, #189, #190, .T. );
#181 = EDGE_CURVE( '', #191, #191, #192, .T. );
#182 = EDGE_CURVE( '', #193, #193, #194, .F. );
#183 = EDGE_CURVE( '', #195, #195, #196, .T. );
#184 = EDGE_CURVE( '', #197, #197, #198, .T. );
#185 = EDGE_CURVE( '', #199, #200, #201, .T. );
#186 = EDGE_CURVE( '', #200, #199, #202, .T. );
#187 = EDGE_CURVE( '', #203, #203, #204, .T. );
#188 = EDGE_CURVE( '', #205, #205, #206, .T. );
#189 = VERTEX_POINT( '', #207 );
#190 = CIRCLE( '', #208, 30.0000000000000 );
#191 = VERTEX_POINT( '', #209 );
#192 = CIRCLE( '', #210, 30.0000000000000 );
#193 = VERTEX_POINT( '', #211 );
#194 = CIRCLE( '', #212, 17.6500000000000 );
#195 = VERTEX_POINT( '', #213 );
#196 = CIRCLE( '', #214, 17.6767949192431 );
#197 = VERTEX_POINT( '', #215 );
#198 = CIRCLE( '', #216, 20.0967634594000 );
#199 = VERTEX_POINT( '', #217 );
#200 = VERTEX_POINT( '', #218 );
#201 = B_SPLINE_CURVE_WITH_KNOTS( '', 3, ( #219, #220, #221, #222, #223, #224, #225, #226, #227, #228, #229, #230, #231, #232, #233, #234, #235, #236, #237, #238, #239, #240, #241, #242, #243, #244, #245, #246, #247, #248, #249, #250, #251, #252 ), .UNSPECIFIED., .F., .F., ( 4, 2, 2, 2, 2, 2, 2, 2, 2, 2, 2, 2, 2, 2, 2, 2, 4 ), ( 0.000000000000000, 0.0625000000000000, 0.125000000000000, 0.187500000000000, 0.250000000000000, 0.312500000000000, 0.375000000000000, 0.437500000000000, 0.500000000000000, 0.562500000000000, 0.625000000000000, 0.687500000000000, 0.750000000000000, 0.812500000000000, 0.875000000000000, 0.937500000000000, 1.00000000000000 ), .UNSPECIFIED. );
#202 = B_SPLINE_CURVE_WITH_KNOTS( '', 3, ( #253, #254, #255, #256, #257, #258, #259, #260, #261, #262, #263, #264, #265, #266, #267, #268, #269, #270, #271, #272, #273, #274, #275, #276, #277, #278, #279, #280, #281, #282, #283, #284, #285, #286 ), .UNSPECIFIED., .F., .F., ( 4, 2, 2, 2, 2, 2, 2, 2, 2, 2, 2, 2, 2, 2, 2, 2, 4 ), ( 0.000000000000000, 0.0624999999999999, 0.125000000000000, 0.187500000000000, 0.250000000000000, 0.312500000000000, 0.375000000000000, 0.437500000000000, 0.500000000000000, 0.562500000000000, 0.625000000000000, 0.687500000000000, 0.750000000000000, 0.812500000000000, 0.875000000000000, 0.937500000000000, 1.00000000000000 ), .UNSPECIFIED. );
#203 = VERTEX_POINT( '', #287 );
#204 = CIRCLE( '', #288, 17.6500000000000 );
#205 = VERTEX_POINT( '', #289 );
#206 = CIRCLE( '', #290, 12.6500000000000 );
#207 = CARTESIAN_POINT( '', ( 27.4999431143600, -0.000193878983749000, -14.4130676042000 ) );
#208 = AXIS2_PLACEMENT_3D( '', #291, #292, #293 );
#209 = CARTESIAN_POINT( '', ( 27.4999431143600, -0.000193878983749000, -17.0000000000000 ) );
#210 = AXIS2_PLACEMENT_3D( '', #294, #295, #296 );
#211 = CARTESIAN_POINT( '', ( -20.1500568856400, -0.000193878983749000, -2.60849153574381 ) );
#212 = AXIS2_PLACEMENT_3D( '', #297, #298, #299 );
#213 = CARTESIAN_POINT( '', ( -20.1768518048831, -0.000193878983749000, -2.70849153574376 ) );
#214 = AXIS2_PLACEMENT_3D( '', #300, #301, #302 );
#215 = CARTESIAN_POINT( '', ( 17.5967065737600, -0.000193878983751000, -6.89999999998000 ) );
#216 = AXIS2_PLACEMENT_3D( '', #303, #304, #305 );
#217 = CARTESIAN_POINT( '', ( -20.5919656346000, -18.0921026279000, -9.99889032608000 ) );
#218 = CARTESIAN_POINT( '', ( 15.5918518633000, 18.0917148699000, -9.99889032608000 ) );
#219 = CARTESIAN_POINT( '', ( -20.5919656345542, -18.0921026278542, -9.99889032608000 ) );
#220 = CARTESIAN_POINT( '', ( -21.7760782931974, -16.9079899692081, -9.99889032608000 ) );
#221 = CARTESIAN_POINT( '', ( -22.8435396386196, -15.6072845563791, -9.99889032608000 ) );
#222 = CARTESIAN_POINT( '', ( -24.7042423307351, -12.8225461847445, -9.99889032608000 ) );
#223 = CARTESIAN_POINT( '', ( -25.4974376678876, -11.3385820840828, -9.99889032608000 ) );
#224 = CARTESIAN_POINT( '', ( -26.7791119738682, -8.24434659202834, -9.99889032608000 ) );
#225 = CARTESIAN_POINT( '', ( -27.2675592507733, -6.63415171170572, -9.99889032608000 ) );
#226 = CARTESIAN_POINT( '', ( -27.9209511458114, -3.34932883392393, -9.99889032608000 ) );
#227 = CARTESIAN_POINT( '', ( -28.0858796075422, -1.67478206018354, -9.99889032608000 ) );
#228 = CARTESIAN_POINT( '', ( -28.0858796075378, 1.67439430228232, -9.99889032608000 ) );
#229 = CARTESIAN_POINT( '', ( -27.9209511458028, 3.34894107602230, -9.99889032608000 ) );
#230 = CARTESIAN_POINT( '', ( -27.2675592507562, 6.63376395380239, -9.99889032608000 ) );
#231 = CARTESIAN_POINT( '', ( -26.7791119738468, 8.24395883412374, -9.99889032608000 ) );
#232 = CARTESIAN_POINT( '', ( -25.4974376678582, 11.3381943261748, -9.99889032608000 ) );
#233 = CARTESIAN_POINT( '', ( -24.7042423307019, 12.8221584268345, -9.99889032608000 ) );
#234 = CARTESIAN_POINT( '', ( -22.8435396385792, 15.6068967984643, -9.99889032608000 ) );
#235 = CARTESIAN_POINT( '', ( -21.7760782931536, 16.9076022112906, -9.99889032608000 ) );
#236 = CARTESIAN_POINT( '', ( -19.4078529758611, 19.2758275285766, -9.99889032608000 ) );
#237 = CARTESIAN_POINT( '', ( -18.1071475630318, 20.3432888739985, -9.99889032608000 ) );
#238 = CARTESIAN_POINT( '', ( -15.3224091913969, 22.2039915661135, -9.99889032608000 ) );
#239 = CARTESIAN_POINT( '', ( -13.8384450907350, 22.9971869032658, -9.99889032608000 ) );
#240 = CARTESIAN_POINT( '', ( -10.7442095986804, 24.2788612092459, -9.99889032608000 ) );
#241 = CARTESIAN_POINT( '', ( -9.13401471835770, 24.7673084861508, -9.99889032608000 ) );
#242 = CARTESIAN_POINT( '', ( -5.84919184057580, 25.4207003811883, -9.99889032608000 ) );
#243 = CARTESIAN_POINT( '', ( -4.17464506683537, 25.5856288429187, -9.99889032608000 ) );
#244 = CARTESIAN_POINT( '', ( -0.825468704369501, 25.5856288429138, -9.99889032608000 ) );
#245 = CARTESIAN_POINT( '', ( 0.849078069370433, 25.4207003811784, -9.99889032608000 ) );
#246 = CARTESIAN_POINT( '', ( 4.13390094715041, 24.7673084861313, -9.99889032608000 ) );
#247 = CARTESIAN_POINT( '', ( 5.74409582747167, 24.2788612092217, -9.99889032608000 ) );
#248 = CARTESIAN_POINT( '', ( 8.83833131952255, 22.9971869032325, -9.99889032608000 ) );
#249 = CARTESIAN_POINT( '', ( 10.3222954201821, 22.2039915660759, -9.99889032608000 ) );
#250 = CARTESIAN_POINT( '', ( 13.1070337918116, 20.3432888739527, -9.99889032608000 ) );
#251 = CARTESIAN_POINT( '', ( 14.4077392046377, 19.2758275285270, -9.99889032608000 ) );
#252 = CARTESIAN_POINT( '', ( 15.5918518632805, 18.0917148698805, -9.99889032608000 ) );
#253 = CARTESIAN_POINT( '', ( 15.5918518632805, 18.0917148698805, -9.99889032608000 ) );
#254 = CARTESIAN_POINT( '', ( 16.7759645219230, 16.9076022112342, -9.99889032608000 ) );
#255 = CARTESIAN_POINT( '', ( 17.8434258673445, 15.6068967984052, -9.99889032608000 ) );
#256 = CARTESIAN_POINT( '', ( 19.7041285594587, 12.8221584267706, -9.99889032608000 ) );
#257 = CARTESIAN_POINT( '', ( 20.4973238966107, 11.3381943261090, -9.99889032608000 ) );
#258 = CARTESIAN_POINT( '', ( 21.7789982025902, 8.24395883405490, -9.99889032608000 ) );
#259 = CARTESIAN_POINT( '', ( 22.2674454794949, 6.63376395373252, -9.99889032608000 ) );
#260 = CARTESIAN_POINT( '', ( 22.9208373745321, 3.34894107595131, -9.99889032608000 ) );
#261 = CARTESIAN_POINT( '', ( 23.0857658362625, 1.67439430221125, -9.99889032608000 ) );
#262 = CARTESIAN_POINT( '', ( 23.0857658362575, -1.67478206025387, -9.99889032608000 ) );
#263 = CARTESIAN_POINT( '', ( 22.9208373745223, -3.34932883399344, -9.99889032608000 ) );
#264 = CARTESIAN_POINT( '', ( 22.2674454794754, -6.63415171177272, -9.99889032608000 ) );
#265 = CARTESIAN_POINT( '', ( 21.7789982025660, -8.24434659209368, -9.99889032608000 ) );
#266 = CARTESIAN_POINT( '', ( 20.4973238965774, -11.3385820841440, -9.99889032608000 ) );
#267 = CARTESIAN_POINT( '', ( 19.7041285594211, -12.8225461848033, -9.99889032608000 ) );
#268 = CARTESIAN_POINT( '', ( 17.8434258672987, -15.6072845564324, -9.99889032608000 ) );
#269 = CARTESIAN_POINT( '', ( 16.7759645218734, -16.9079899692583, -9.99889032608000 ) );
#270 = CARTESIAN_POINT( '', ( 14.4077392045813, -19.2762152865438, -9.99889032608000 ) );
#271 = CARTESIAN_POINT( '', ( 13.1070337917524, -20.3436766319656, -9.99889032608000 ) );
#272 = CARTESIAN_POINT( '', ( 10.3222954201182, -22.2043793240803, -9.99889032608000 ) );
#273 = CARTESIAN_POINT( '', ( 8.83833131945670, -22.9975746612325, -9.99889032608000 ) );
#274 = CARTESIAN_POINT( '', ( 5.74409582740284, -24.2792489672125, -9.99889032608000 ) );
#275 = CARTESIAN_POINT( '', ( 4.13390094708054, -24.7676962441175, -9.99889032608000 ) );
#276 = CARTESIAN_POINT( '', ( 0.849078069299449, -25.4210881391553, -9.99889032608000 ) );
#277 = CARTESIAN_POINT( '', ( -0.825468704440588, -25.5860166008859, -9.99889032608000 ) );
#278 = CARTESIAN_POINT( '', ( -4.17464506690571, -25.5860166008816, -9.99889032608000 ) );
#279 = CARTESIAN_POINT( '', ( -5.84919184064531, -25.4210881391466, -9.99889032608000 ) );
#280 = CARTESIAN_POINT( '', ( -9.13401471842471, -24.7676962441003, -9.99889032608000 ) );
#281 = CARTESIAN_POINT( '', ( -10.7442095987457, -24.2792489671912, -9.99889032608000 ) );
#282 = CARTESIAN_POINT( '', ( -13.8384450907963, -22.9975746612031, -9.99889032608000 ) );
#283 = CARTESIAN_POINT( '', ( -15.3224091914557, -22.2043793240471, -9.99889032608000 ) );
#284 = CARTESIAN_POINT( '', ( -18.1071475630851, -20.3436766319252, -9.99889032608000 ) );
#285 = CARTESIAN_POINT( '', ( -19.4078529759112, -19.2762152865000, -9.99889032608000 ) );
#286 = CARTESIAN_POINT( '', ( -20.5919656345542, -18.0921026278542, -9.99889032608000 ) );
#287 = CARTESIAN_POINT( '', ( 15.1499431143600, -0.000193878983749000, 16.2000000000000 ) );
#288 = AXIS2_PLACEMENT_3D( '', #306, #307, #308 );
#289 = CARTESIAN_POINT( '', ( 10.1499431143600, -0.000193878983748000, 21.2000000000000 ) );
#290 = AXIS2_PLACEMENT_3D( '', #309, #310, #311 );
#291 = CARTESIAN_POINT( '', ( -2.50005688564000, -0.000193878983749000, -14.4130676042000 ) );
#292 = DIRECTION( '', ( 0.000000000000000, 0.000000000000000, -1.00000000000000 ) );
#293 = DIRECTION( '', ( 1.00000000000000, 0.000000000000000, 0.000000000000000 ) );
#294 = CARTESIAN_POINT( '', ( -2.50005688564000, -0.000193878983749000, -17.0000000000000 ) );
#295 = DIRECTION( '', ( 0.000000000000000, 0.000000000000000, -1.00000000000000 ) );
#296 = DIRECTION( '', ( 1.00000000000000, 0.000000000000000, 0.000000000000000 ) );
#297 = CARTESIAN_POINT( '', ( -2.50005688564000, -0.000193878983749000, -2.60849153574381 ) );
#298 = DIRECTION( '', ( -0.000000000000000, 0.000000000000000, -1.00000000000000 ) );
#299 = DIRECTION( '', ( -1.00000000000000, 0.000000000000000, 0.000000000000000 ) );
#300 = CARTESIAN_POINT( '', ( -2.50005688564000, -0.000193878983749000, -2.70849153574376 ) );
#301 = DIRECTION( '', ( -0.000000000000000, 0.000000000000000, -1.00000000000000 ) );
#302 = DIRECTION( '', ( -1.00000000000000, 0.000000000000000, 0.000000000000000 ) );
#303 = CARTESIAN_POINT( '', ( -2.50005688564000, -0.000193878983751000, -6.89999999998000 ) );
#304 = DIRECTION( '', ( 0.000000000000000, 0.000000000000000, -1.00000000000000 ) );
#305 = DIRECTION( '', ( 1.00000000000000, 0.000000000000000, 0.000000000000000 ) );
#306 = CARTESIAN_POINT( '', ( -2.50005688564000, -0.000193878983749000, 16.2000000000000 ) );
#307 = DIRECTION( '', ( 0.000000000000000, 0.000000000000000, -1.00000000000000 ) );
#308 = DIRECTION( '', ( 1.00000000000000, 0.000000000000000, 0.000000000000000 ) );
#309 = CARTESIAN_POINT( '', ( -2.50005688564000, -0.000193878983748000, 21.2000000000000 ) );
#310 = DIRECTION( '', ( 0.000000000000000, 0.000000000000000, -1.00000000000000 ) );
#311 = DIRECTION( '', ( 1.00000000000000, 0.000000000000000, 0.000000000000000 ) );
ENDSEC;
END-ISO-10303-21;
