ISO-10303-21;
HEADER;
/* Generated by software containing ST-Developer
 * from STEP Tools, Inc. (www.steptools.com) 
 */

FILE_DESCRIPTION(
/* description */ (''),
/* implementation_level */ '2;1');

FILE_NAME(
/* name */ 'RSp_axis.step',
/* time_stamp */ '2023-01-13T18:07:46+01:00',
/* author */ (''),
/* organization */ (''),
/* preprocessor_version */ 'ST-DEVELOPER v19.2',
/* originating_system */ 'Autodesk Translation Framework v11.17.0.187',

/* authorisation */ '');

FILE_SCHEMA (('AUTOMOTIVE_DESIGN { 1 0 10303 214 3 1 1 }'));
ENDSEC;

DATA;
#10=MECHANICAL_DESIGN_GEOMETRIC_PRESENTATION_REPRESENTATION('',(#13),#294);
#11=SHAPE_REPRESENTATION_RELATIONSHIP('SRR','None',#301,#12);
#12=ADVANCED_BREP_SHAPE_REPRESENTATION('',(#14),#293);
#13=STYLED_ITEM('',(#311),#14);
#14=MANIFOLD_SOLID_BREP('Body1',#157);
#15=FACE_BOUND('',#40,.T.);
#16=CONICAL_SURFACE('',#179,2.75000002980232,0.785398163397448);
#17=CONICAL_SURFACE('',#182,2.75000002980232,0.785398163397449);
#18=CONICAL_SURFACE('',#186,1.75000002980232,0.78539816339745);
#19=CYLINDRICAL_SURFACE('',#174,3.00000002980232);
#20=CYLINDRICAL_SURFACE('',#191,1.9635);
#21=(
BOUNDED_CURVE()
B_SPLINE_CURVE(2,(#253,#254,#255),.UNSPECIFIED.,.F.,.F.)
B_SPLINE_CURVE_WITH_KNOTS((3,3),(0.174642183646295,0.34928436729259),
 .UNSPECIFIED.)
CURVE()
GEOMETRIC_REPRESENTATION_ITEM()
RATIONAL_B_SPLINE_CURVE((1.,1.04880884674927,1.))
REPRESENTATION_ITEM('')
);
#22=(
BOUNDED_CURVE()
B_SPLINE_CURVE(2,(#257,#258,#259),.UNSPECIFIED.,.F.,.F.)
B_SPLINE_CURVE_WITH_KNOTS((3,3),(0.,0.174642183646295),.UNSPECIFIED.)
CURVE()
GEOMETRIC_REPRESENTATION_ITEM()
RATIONAL_B_SPLINE_CURVE((1.,1.04880884674927,1.))
REPRESENTATION_ITEM('')
);
#23=FACE_OUTER_BOUND('',#33,.T.);
#24=FACE_OUTER_BOUND('',#34,.T.);
#25=FACE_OUTER_BOUND('',#35,.T.);
#26=FACE_OUTER_BOUND('',#36,.T.);
#27=FACE_OUTER_BOUND('',#37,.T.);
#28=FACE_OUTER_BOUND('',#38,.T.);
#29=FACE_OUTER_BOUND('',#39,.T.);
#30=FACE_OUTER_BOUND('',#41,.T.);
#31=FACE_OUTER_BOUND('',#42,.T.);
#32=FACE_OUTER_BOUND('',#43,.T.);
#33=EDGE_LOOP('',(#102,#103));
#34=EDGE_LOOP('',(#104,#105,#106,#107,#108));
#35=EDGE_LOOP('',(#109,#110,#111,#112,#113,#114,#115,#116,#117));
#36=EDGE_LOOP('',(#118,#119,#120,#121,#122));
#37=EDGE_LOOP('',(#123));
#38=EDGE_LOOP('',(#124,#125,#126,#127,#128));
#39=EDGE_LOOP('',(#129));
#40=EDGE_LOOP('',(#130));
#41=EDGE_LOOP('',(#131,#132,#133,#134,#135));
#42=EDGE_LOOP('',(#136));
#43=EDGE_LOOP('',(#137,#138,#139,#140,#141));
#44=LINE('',#248,#51);
#45=LINE('',#251,#52);
#46=LINE('',#260,#53);
#47=LINE('',#265,#54);
#48=LINE('',#275,#55);
#49=LINE('',#285,#56);
#50=LINE('',#290,#57);
#51=VECTOR('',#198,10.);
#52=VECTOR('',#201,10.);
#53=VECTOR('',#202,10.);
#54=VECTOR('',#207,3.00000002980232);
#55=VECTOR('',#222,2.75000002980232);
#56=VECTOR('',#233,1.75000002980232);
#57=VECTOR('',#242,2.00000002980232);
#58=CIRCLE('',#172,3.00000002980232);
#59=CIRCLE('',#175,3.00000002980232);
#60=CIRCLE('',#176,3.00000002980232);
#61=CIRCLE('',#177,3.00000002980232);
#62=CIRCLE('',#178,3.00000002980232);
#63=CIRCLE('',#180,2.50000002980233);
#64=CIRCLE('',#183,2.50000002980232);
#65=CIRCLE('',#185,1.9635);
#66=CIRCLE('',#187,1.9635);
#67=CIRCLE('',#188,1.50000002980232);
#68=CIRCLE('',#189,1.9635);
#69=VERTEX_POINT('',#245);
#70=VERTEX_POINT('',#246);
#71=VERTEX_POINT('',#250);
#72=VERTEX_POINT('',#252);
#73=VERTEX_POINT('',#256);
#74=VERTEX_POINT('',#262);
#75=VERTEX_POINT('',#264);
#76=VERTEX_POINT('',#266);
#77=VERTEX_POINT('',#274);
#78=VERTEX_POINT('',#278);
#79=VERTEX_POINT('',#281);
#80=VERTEX_POINT('',#282);
#81=VERTEX_POINT('',#284);
#82=EDGE_CURVE('',#69,#70,#58,.T.);
#83=EDGE_CURVE('',#70,#69,#44,.T.);
#84=EDGE_CURVE('',#71,#69,#45,.T.);
#85=EDGE_CURVE('',#72,#71,#21,.T.);
#86=EDGE_CURVE('',#73,#72,#22,.T.);
#87=EDGE_CURVE('',#70,#73,#46,.T.);
#88=EDGE_CURVE('',#74,#73,#59,.T.);
#89=EDGE_CURVE('',#74,#75,#47,.T.);
#90=EDGE_CURVE('',#76,#75,#60,.T.);
#91=EDGE_CURVE('',#75,#76,#61,.T.);
#92=EDGE_CURVE('',#71,#74,#62,.T.);
#93=EDGE_CURVE('',#72,#72,#63,.T.);
#94=EDGE_CURVE('',#76,#77,#48,.T.);
#95=EDGE_CURVE('',#77,#77,#64,.T.);
#96=EDGE_CURVE('',#78,#78,#65,.T.);
#97=EDGE_CURVE('',#79,#80,#66,.F.);
#98=EDGE_CURVE('',#80,#81,#49,.T.);
#99=EDGE_CURVE('',#81,#81,#67,.T.);
#100=EDGE_CURVE('',#80,#79,#68,.F.);
#101=EDGE_CURVE('',#78,#79,#50,.T.);
#102=ORIENTED_EDGE('',*,*,#82,.F.);
#103=ORIENTED_EDGE('',*,*,#83,.F.);
#104=ORIENTED_EDGE('',*,*,#84,.F.);
#105=ORIENTED_EDGE('',*,*,#85,.F.);
#106=ORIENTED_EDGE('',*,*,#86,.F.);
#107=ORIENTED_EDGE('',*,*,#87,.F.);
#108=ORIENTED_EDGE('',*,*,#83,.T.);
#109=ORIENTED_EDGE('',*,*,#84,.T.);
#110=ORIENTED_EDGE('',*,*,#82,.T.);
#111=ORIENTED_EDGE('',*,*,#87,.T.);
#112=ORIENTED_EDGE('',*,*,#88,.F.);
#113=ORIENTED_EDGE('',*,*,#89,.T.);
#114=ORIENTED_EDGE('',*,*,#90,.F.);
#115=ORIENTED_EDGE('',*,*,#91,.F.);
#116=ORIENTED_EDGE('',*,*,#89,.F.);
#117=ORIENTED_EDGE('',*,*,#92,.F.);
#118=ORIENTED_EDGE('',*,*,#85,.T.);
#119=ORIENTED_EDGE('',*,*,#92,.T.);
#120=ORIENTED_EDGE('',*,*,#88,.T.);
#121=ORIENTED_EDGE('',*,*,#86,.T.);
#122=ORIENTED_EDGE('',*,*,#93,.T.);
#123=ORIENTED_EDGE('',*,*,#93,.F.);
#124=ORIENTED_EDGE('',*,*,#90,.T.);
#125=ORIENTED_EDGE('',*,*,#91,.T.);
#126=ORIENTED_EDGE('',*,*,#94,.T.);
#127=ORIENTED_EDGE('',*,*,#95,.T.);
#128=ORIENTED_EDGE('',*,*,#94,.F.);
#129=ORIENTED_EDGE('',*,*,#95,.F.);
#130=ORIENTED_EDGE('',*,*,#96,.T.);
#131=ORIENTED_EDGE('',*,*,#97,.T.);
#132=ORIENTED_EDGE('',*,*,#98,.T.);
#133=ORIENTED_EDGE('',*,*,#99,.T.);
#134=ORIENTED_EDGE('',*,*,#98,.F.);
#135=ORIENTED_EDGE('',*,*,#100,.T.);
#136=ORIENTED_EDGE('',*,*,#99,.F.);
#137=ORIENTED_EDGE('',*,*,#96,.F.);
#138=ORIENTED_EDGE('',*,*,#101,.T.);
#139=ORIENTED_EDGE('',*,*,#100,.F.);
#140=ORIENTED_EDGE('',*,*,#97,.F.);
#141=ORIENTED_EDGE('',*,*,#101,.F.);
#142=PLANE('',#171);
#143=PLANE('',#173);
#144=PLANE('',#181);
#145=PLANE('',#184);
#146=PLANE('',#190);
#147=ADVANCED_FACE('',(#23),#142,.F.);
#148=ADVANCED_FACE('',(#24),#143,.F.);
#149=ADVANCED_FACE('',(#25),#19,.T.);
#150=ADVANCED_FACE('',(#26),#16,.T.);
#151=ADVANCED_FACE('',(#27),#144,.T.);
#152=ADVANCED_FACE('',(#28),#17,.T.);
#153=ADVANCED_FACE('',(#29,#15),#145,.T.);
#154=ADVANCED_FACE('',(#30),#18,.T.);
#155=ADVANCED_FACE('',(#31),#146,.T.);
#156=ADVANCED_FACE('',(#32),#20,.T.);
#157=CLOSED_SHELL('',(#147,#148,#149,#150,#151,#152,#153,#154,#155,#156));
#158=DERIVED_UNIT_ELEMENT(#160,1.);
#159=DERIVED_UNIT_ELEMENT(#296,-3.);
#160=(
MASS_UNIT()
NAMED_UNIT(*)
SI_UNIT(.KILO.,.GRAM.)
);
#161=DERIVED_UNIT((#158,#159));
#162=MEASURE_REPRESENTATION_ITEM('density measure',
POSITIVE_RATIO_MEASURE(7850.),#161);
#163=PROPERTY_DEFINITION_REPRESENTATION(#168,#165);
#164=PROPERTY_DEFINITION_REPRESENTATION(#169,#166);
#165=REPRESENTATION('material name',(#167),#293);
#166=REPRESENTATION('density',(#162),#293);
#167=DESCRIPTIVE_REPRESENTATION_ITEM('Steel','Steel');
#168=PROPERTY_DEFINITION('material property','material name',#303);
#169=PROPERTY_DEFINITION('material property','density of part',#303);
#170=AXIS2_PLACEMENT_3D('placement',#243,#192,#193);
#171=AXIS2_PLACEMENT_3D('',#244,#194,#195);
#172=AXIS2_PLACEMENT_3D('',#247,#196,#197);
#173=AXIS2_PLACEMENT_3D('',#249,#199,#200);
#174=AXIS2_PLACEMENT_3D('',#261,#203,#204);
#175=AXIS2_PLACEMENT_3D('',#263,#205,#206);
#176=AXIS2_PLACEMENT_3D('',#267,#208,#209);
#177=AXIS2_PLACEMENT_3D('',#268,#210,#211);
#178=AXIS2_PLACEMENT_3D('',#269,#212,#213);
#179=AXIS2_PLACEMENT_3D('',#270,#214,#215);
#180=AXIS2_PLACEMENT_3D('',#271,#216,#217);
#181=AXIS2_PLACEMENT_3D('',#272,#218,#219);
#182=AXIS2_PLACEMENT_3D('',#273,#220,#221);
#183=AXIS2_PLACEMENT_3D('',#276,#223,#224);
#184=AXIS2_PLACEMENT_3D('',#277,#225,#226);
#185=AXIS2_PLACEMENT_3D('',#279,#227,#228);
#186=AXIS2_PLACEMENT_3D('',#280,#229,#230);
#187=AXIS2_PLACEMENT_3D('',#283,#231,#232);
#188=AXIS2_PLACEMENT_3D('',#286,#234,#235);
#189=AXIS2_PLACEMENT_3D('',#287,#236,#237);
#190=AXIS2_PLACEMENT_3D('',#288,#238,#239);
#191=AXIS2_PLACEMENT_3D('',#289,#240,#241);
#192=DIRECTION('axis',(0.,0.,1.));
#193=DIRECTION('refdir',(1.,0.,0.));
#194=DIRECTION('center_axis',(0.,-1.,0.));
#195=DIRECTION('ref_axis',(0.,0.,-1.));
#196=DIRECTION('center_axis',(0.,-1.,0.));
#197=DIRECTION('ref_axis',(0.,0.,1.));
#198=DIRECTION('',(1.,0.,0.));
#199=DIRECTION('center_axis',(0.,0.,-1.));
#200=DIRECTION('ref_axis',(1.,0.,0.));
#201=DIRECTION('',(0.,-1.,0.));
#202=DIRECTION('',(0.,1.,0.));
#203=DIRECTION('center_axis',(0.,1.,0.));
#204=DIRECTION('ref_axis',(0.,0.,1.));
#205=DIRECTION('center_axis',(0.,1.,0.));
#206=DIRECTION('ref_axis',(0.,0.,-1.));
#207=DIRECTION('',(0.,-1.,0.));
#208=DIRECTION('center_axis',(0.,-1.,0.));
#209=DIRECTION('ref_axis',(0.,0.,-1.));
#210=DIRECTION('center_axis',(0.,-1.,0.));
#211=DIRECTION('ref_axis',(0.,0.,-1.));
#212=DIRECTION('center_axis',(0.,1.,0.));
#213=DIRECTION('ref_axis',(0.,0.,-1.));
#214=DIRECTION('center_axis',(0.,-1.,0.));
#215=DIRECTION('ref_axis',(0.,0.,-1.));
#216=DIRECTION('center_axis',(0.,-1.,0.));
#217=DIRECTION('ref_axis',(0.,0.,-1.));
#218=DIRECTION('center_axis',(0.,1.,0.));
#219=DIRECTION('ref_axis',(0.,0.,1.));
#220=DIRECTION('center_axis',(0.,1.,0.));
#221=DIRECTION('ref_axis',(0.,0.,-1.));
#222=DIRECTION('',(-8.65956056235494E-17,-0.707106781186547,-0.707106781186548));
#223=DIRECTION('center_axis',(0.,1.,0.));
#224=DIRECTION('ref_axis',(0.,0.,-1.));
#225=DIRECTION('center_axis',(0.,-1.,0.));
#226=DIRECTION('ref_axis',(0.,0.,-1.));
#227=DIRECTION('center_axis',(0.,1.,0.));
#228=DIRECTION('ref_axis',(0.,0.,1.));
#229=DIRECTION('center_axis',(0.,1.,0.));
#230=DIRECTION('ref_axis',(0.,0.,-1.));
#231=DIRECTION('center_axis',(0.,1.,0.));
#232=DIRECTION('ref_axis',(0.,0.,1.));
#233=DIRECTION('',(-8.65956056235495E-17,-0.707106781186546,-0.707106781186549));
#234=DIRECTION('center_axis',(0.,1.,0.));
#235=DIRECTION('ref_axis',(0.,0.,-1.));
#236=DIRECTION('center_axis',(0.,1.,0.));
#237=DIRECTION('ref_axis',(0.,0.,1.));
#238=DIRECTION('center_axis',(0.,-1.,0.));
#239=DIRECTION('ref_axis',(0.,0.,-1.));
#240=DIRECTION('center_axis',(0.,1.,0.));
#241=DIRECTION('ref_axis',(0.,0.,1.));
#242=DIRECTION('',(0.,-1.,0.));
#243=CARTESIAN_POINT('',(0.,0.,0.));
#244=CARTESIAN_POINT('Origin',(0.,25.0000001490116,3.25000004842877));
#245=CARTESIAN_POINT('',(1.65831239293127,25.0000001490116,2.5000000372529));
#246=CARTESIAN_POINT('',(-1.65831239293127,25.0000001490116,2.5000000372529));
#247=CARTESIAN_POINT('Origin',(0.,25.0000001490116,0.));
#248=CARTESIAN_POINT('',(3.00000004470348,25.0000001490116,2.5000000372529));
#249=CARTESIAN_POINT('Origin',(-3.00000004470348,35.0000001490116,2.5000000372529));
#250=CARTESIAN_POINT('',(1.65831239293127,34.5000001490116,2.5000000372529));
#251=CARTESIAN_POINT('',(1.65831239293127,22.5000001490116,2.5000000372529));
#252=CARTESIAN_POINT('',(-3.0616170343657E-16,35.0000001490116,2.50000002980233));
#253=CARTESIAN_POINT('Ctrl Pts',(0.,35.000000141561,2.5000000372529));
#254=CARTESIAN_POINT('Ctrl Pts',(0.753778362465536,35.000000141561,2.5000000372529));
#255=CARTESIAN_POINT('Ctrl Pts',(1.65831239293128,34.5000001490116,2.5000000372529));
#256=CARTESIAN_POINT('',(-1.65831239293127,34.5000001490116,2.5000000372529));
#257=CARTESIAN_POINT('Ctrl Pts',(-1.65831239293128,34.5000001490116,2.5000000372529));
#258=CARTESIAN_POINT('Ctrl Pts',(-0.753778362465536,35.000000141561,2.5000000372529));
#259=CARTESIAN_POINT('Ctrl Pts',(0.,35.000000141561,2.5000000372529));
#260=CARTESIAN_POINT('',(-1.65831239293127,22.5000001490116,2.5000000372529));
#261=CARTESIAN_POINT('Origin',(0.,22.5000001490116,0.));
#262=CARTESIAN_POINT('',(-3.67394043393938E-16,34.5000001490116,-3.00000002980232));
#263=CARTESIAN_POINT('Origin',(0.,34.5000001490116,0.));
#264=CARTESIAN_POINT('',(-3.67394043393938E-16,10.5000001490116,-3.00000002980232));
#265=CARTESIAN_POINT('',(-3.67394043393938E-16,22.5000001490116,-3.00000002980232));
#266=CARTESIAN_POINT('',(-3.67394043393938E-16,10.5000001490116,3.00000002980232));
#267=CARTESIAN_POINT('Origin',(0.,10.5000001490116,0.));
#268=CARTESIAN_POINT('Origin',(0.,10.5000001490116,0.));
#269=CARTESIAN_POINT('Origin',(0.,34.5000001490116,0.));
#270=CARTESIAN_POINT('Origin',(0.,34.7500001490116,0.));
#271=CARTESIAN_POINT('Origin',(0.,35.0000001490116,0.));
#272=CARTESIAN_POINT('Origin',(0.,35.0000001490116,0.));
#273=CARTESIAN_POINT('Origin',(0.,10.2500001490116,0.));
#274=CARTESIAN_POINT('',(3.0616170343657E-16,10.0000001490116,2.50000002980232));
#275=CARTESIAN_POINT('',(3.36777873415254E-16,10.2500001490116,2.75000002980232));
#276=CARTESIAN_POINT('Origin',(0.,10.0000001490116,0.));
#277=CARTESIAN_POINT('Origin',(0.,10.0000001490116,3.00000002980232));
#278=CARTESIAN_POINT('',(-2.40459399012583E-16,10.0000001490116,-1.9635));
#279=CARTESIAN_POINT('Origin',(0.,10.0000001490116,0.));
#280=CARTESIAN_POINT('Origin',(0.,-24.750000372529,0.));
#281=CARTESIAN_POINT('',(-2.40459399012583E-16,-24.5365004023314,-1.9635));
#282=CARTESIAN_POINT('',(2.40459399012583E-16,-24.5365004023314,1.9635));
#283=CARTESIAN_POINT('Origin',(0.,-24.5365004023314,0.));
#284=CARTESIAN_POINT('',(1.83697023521835E-16,-25.000000372529,1.50000002980232));
#285=CARTESIAN_POINT('',(2.14313193500519E-16,-24.750000372529,1.75000002980232));
#286=CARTESIAN_POINT('Origin',(0.,-25.000000372529,0.));
#287=CARTESIAN_POINT('Origin',(0.,-24.5365004023314,0.));
#288=CARTESIAN_POINT('Origin',(0.,-25.000000372529,2.00000002980232));
#289=CARTESIAN_POINT('Origin',(0.,-7.50000011175871,0.));
#290=CARTESIAN_POINT('',(-2.40459399012583E-16,-7.50000011175871,-1.9635));
#291=UNCERTAINTY_MEASURE_WITH_UNIT(LENGTH_MEASURE(0.01),#295,
'DISTANCE_ACCURACY_VALUE',
'Maximum model space distance between geometric entities at asserted c
onnectivities');
#292=UNCERTAINTY_MEASURE_WITH_UNIT(LENGTH_MEASURE(0.01),#295,
'DISTANCE_ACCURACY_VALUE',
'Maximum model space distance between geometric entities at asserted c
onnectivities');
#293=(
GEOMETRIC_REPRESENTATION_CONTEXT(3)
GLOBAL_UNCERTAINTY_ASSIGNED_CONTEXT((#291))
GLOBAL_UNIT_ASSIGNED_CONTEXT((#295,#297,#298))
REPRESENTATION_CONTEXT('','3D')
);
#294=(
GEOMETRIC_REPRESENTATION_CONTEXT(3)
GLOBAL_UNCERTAINTY_ASSIGNED_CONTEXT((#292))
GLOBAL_UNIT_ASSIGNED_CONTEXT((#295,#297,#298))
REPRESENTATION_CONTEXT('','3D')
);
#295=(
LENGTH_UNIT()
NAMED_UNIT(*)
SI_UNIT(.MILLI.,.METRE.)
);
#296=(
LENGTH_UNIT()
NAMED_UNIT(*)
SI_UNIT($,.METRE.)
);
#297=(
NAMED_UNIT(*)
PLANE_ANGLE_UNIT()
SI_UNIT($,.RADIAN.)
);
#298=(
NAMED_UNIT(*)
SI_UNIT($,.STERADIAN.)
SOLID_ANGLE_UNIT()
);
#299=SHAPE_DEFINITION_REPRESENTATION(#300,#301);
#300=PRODUCT_DEFINITION_SHAPE('',$,#303);
#301=SHAPE_REPRESENTATION('',(#170),#293);
#302=PRODUCT_DEFINITION_CONTEXT('part definition',#307,'design');
#303=PRODUCT_DEFINITION('RSp_axis','RSp_axis v4',#304,#302);
#304=PRODUCT_DEFINITION_FORMATION('',$,#309);
#305=PRODUCT_RELATED_PRODUCT_CATEGORY('RSp_axis v4','RSp_axis v4',(#309));
#306=APPLICATION_PROTOCOL_DEFINITION('international standard',
'automotive_design',2009,#307);
#307=APPLICATION_CONTEXT(
'Core Data for Automotive Mechanical Design Process');
#308=PRODUCT_CONTEXT('part definition',#307,'mechanical');
#309=PRODUCT('RSp_axis','RSp_axis v4',$,(#308));
#310=PRESENTATION_STYLE_ASSIGNMENT((#312));
#311=PRESENTATION_STYLE_ASSIGNMENT((#313));
#312=SURFACE_STYLE_USAGE(.BOTH.,#314);
#313=SURFACE_STYLE_USAGE(.BOTH.,#315);
#314=SURFACE_SIDE_STYLE('',(#316));
#315=SURFACE_SIDE_STYLE('',(#317));
#316=SURFACE_STYLE_FILL_AREA(#318);
#317=SURFACE_STYLE_FILL_AREA(#319);
#318=FILL_AREA_STYLE('Steel - Satin',(#320));
#319=FILL_AREA_STYLE('Stainless Steel - Satin',(#321));
#320=FILL_AREA_STYLE_COLOUR('Steel - Satin',#322);
#321=FILL_AREA_STYLE_COLOUR('Stainless Steel - Satin',#323);
#322=COLOUR_RGB('Steel - Satin',0.627450980392157,0.627450980392157,0.627450980392157);
#323=COLOUR_RGB('Stainless Steel - Satin',0.796078431372549,0.796078431372549,
0.796078431372549);
ENDSEC;
END-ISO-10303-21;
