ISO-10303-21;
HEADER;
FILE_DESCRIPTION(('CATIA V5 STEP Exchange','CAx-IF Rec.Pracs.--- Model Styling and Organization---1.4--- 2014-01-23','CAx-IF Rec.Pracs.---3D Tessellated Data Validation Properties---0.5---2014-09-14'),'2;1');

FILE_NAME('D:\\Catia V5\\Projet Guitare\\Plaque laterale.stp','2023-01-01T16:09:57+00:00',('none'),('none'),'CATIA Version 5-6 Release 2018 SP6','CATIA V5 STEP AP242','none');

FILE_SCHEMA(('AP242_MANAGED_MODEL_BASED_3D_ENGINEERING_MIM_LF  {1 0 10303 442 1 1 4}'));

ENDSEC;
DATA;
#5=PRODUCT('Plaque but\X2\00E9\X0\e','','',(#2)) ;
#2=PRODUCT_CONTEXT(' ',#1,'mechanical') ;
#1=APPLICATION_CONTEXT('managed model based 3d engineering') ;
#10=PRODUCT_DEFINITION('',' ',#6,#3) ;
#3=PRODUCT_DEFINITION_CONTEXT('part definition',#1,' ') ;
#11=PRODUCT_DEFINITION_SHAPE(' ',' ',#10) ;
#387=MECHANICAL_DESIGN_GEOMETRIC_PRESENTATION_REPRESENTATION(' ',(#29),#16) ;
#388=MECHANICAL_DESIGN_GEOMETRIC_PRESENTATION_REPRESENTATION(' ',(#384),#16) ;
#19=SHAPE_REPRESENTATION(' ',(#18),#16) ;
#7=PRODUCT_CATEGORY('part','specification') ;
#17=CARTESIAN_POINT(' ',(0.,0.,0.)) ;
#31=CARTESIAN_POINT('Axis2P3D Location',(80.,0.,-8.)) ;
#36=CARTESIAN_POINT('Line Origine',(77.45,1.,-8.)) ;
#40=CARTESIAN_POINT('Vertex',(77.45,2.,-8.)) ;
#42=CARTESIAN_POINT('Vertex',(77.45,0.,-8.)) ;
#45=CARTESIAN_POINT('Axis2P3D Location',(80.,2.,-8.)) ;
#49=CARTESIAN_POINT('Vertex',(82.55,2.,-8.)) ;
#52=CARTESIAN_POINT('Line Origine',(82.55,1.,-8.)) ;
#56=CARTESIAN_POINT('Vertex',(82.55,0.,-8.)) ;
#59=CARTESIAN_POINT('Axis2P3D Location',(80.,0.,-8.)) ;
#71=CARTESIAN_POINT('Axis2P3D Location',(80.,2.,-8.)) ;
#76=CARTESIAN_POINT('Axis2P3D Location',(80.,0.,-8.)) ;
#88=CARTESIAN_POINT('Axis2P3D Location',(0.,2.,0.)) ;
#93=CARTESIAN_POINT('Line Origine',(0.,2.,30.)) ;
#97=CARTESIAN_POINT('Vertex',(-99.,2.,30.)) ;
#99=CARTESIAN_POINT('Vertex',(99.,2.,30.)) ;
#102=CARTESIAN_POINT('Line Origine',(99.,2.,4.99999999988)) ;
#106=CARTESIAN_POINT('Vertex',(99.,2.,-20.)) ;
#109=CARTESIAN_POINT('Line Origine',(0.,2.,-20.)) ;
#113=CARTESIAN_POINT('Vertex',(-99.,2.,-20.)) ;
#116=CARTESIAN_POINT('Line Origine',(-99.,2.,5.)) ;
#131=CARTESIAN_POINT('Axis2P3D Location',(0.,2.,-8.)) ;
#135=CARTESIAN_POINT('Vertex',(-2.55,2.,-8.)) ;
#137=CARTESIAN_POINT('Vertex',(2.55,2.,-8.)) ;
#140=CARTESIAN_POINT('Axis2P3D Location',(0.,2.,-8.)) ;
#149=CARTESIAN_POINT('Axis2P3D Location',(-80.,2.,-8.)) ;
#153=CARTESIAN_POINT('Vertex',(-82.55,2.,-8.)) ;
#155=CARTESIAN_POINT('Vertex',(-77.45,2.,-8.)) ;
#158=CARTESIAN_POINT('Axis2P3D Location',(-80.,2.,-8.)) ;
#168=CARTESIAN_POINT('Axis2P3D Location',(99.,0.,30.)) ;
#173=CARTESIAN_POINT('Line Origine',(-99.,1.,30.)) ;
#177=CARTESIAN_POINT('Vertex',(-99.,0.,30.)) ;
#180=CARTESIAN_POINT('Line Origine',(-1.42108547152E-014,0.,30.)) ;
#184=CARTESIAN_POINT('Vertex',(99.,0.,30.)) ;
#187=CARTESIAN_POINT('Line Origine',(99.,1.,30.)) ;
#199=CARTESIAN_POINT('Axis2P3D Location',(99.,0.,-20.)) ;
#204=CARTESIAN_POINT('Line Origine',(99.,0.,4.99999999988)) ;
#208=CARTESIAN_POINT('Vertex',(99.,0.,-20.)) ;
#211=CARTESIAN_POINT('Line Origine',(99.,1.,-20.)) ;
#223=CARTESIAN_POINT('Axis2P3D Location',(-99.,0.,-20.)) ;
#228=CARTESIAN_POINT('Line Origine',(1.42108547152E-014,0.,-20.)) ;
#232=CARTESIAN_POINT('Vertex',(-99.,0.,-20.)) ;
#235=CARTESIAN_POINT('Line Origine',(-99.,1.,-20.)) ;
#247=CARTESIAN_POINT('Axis2P3D Location',(-99.,0.,30.)) ;
#252=CARTESIAN_POINT('Line Origine',(-99.,0.,5.)) ;
#264=CARTESIAN_POINT('Axis2P3D Location',(0.,0.,0.)) ;
#279=CARTESIAN_POINT('Axis2P3D Location',(0.,0.,-8.)) ;
#283=CARTESIAN_POINT('Vertex',(2.55,0.,-8.)) ;
#285=CARTESIAN_POINT('Vertex',(-2.55,0.,-8.)) ;
#288=CARTESIAN_POINT('Axis2P3D Location',(0.,0.,-8.)) ;
#297=CARTESIAN_POINT('Axis2P3D Location',(-80.,0.,-8.)) ;
#301=CARTESIAN_POINT('Vertex',(-77.45,0.,-8.)) ;
#303=CARTESIAN_POINT('Vertex',(-82.55,0.,-8.)) ;
#306=CARTESIAN_POINT('Axis2P3D Location',(-80.,0.,-8.)) ;
#316=CARTESIAN_POINT('Axis2P3D Location',(0.,0.,-8.)) ;
#321=CARTESIAN_POINT('Line Origine',(-2.55,1.,-8.)) ;
#326=CARTESIAN_POINT('Line Origine',(2.55,1.,-8.)) ;
#345=CARTESIAN_POINT('Axis2P3D Location',(-80.,0.,-8.)) ;
#350=CARTESIAN_POINT('Line Origine',(-82.55,1.,-8.)) ;
#355=CARTESIAN_POINT('Line Origine',(-77.45,1.,-8.)) ;
#376=CARTESIAN_POINT('Axis2P3D Location',(0.,0.,0.)) ;
#8=PRODUCT_RELATED_PRODUCT_CATEGORY('part',$,(#5)) ;
#29=STYLED_ITEM(' ',(#28),#21) ;
#384=STYLED_ITEM(' ',(#383),#379) ;
#28=PRESENTATION_STYLE_ASSIGNMENT((#27)) ;
#383=PRESENTATION_STYLE_ASSIGNMENT((#382)) ;
#382=CURVE_STYLE(' ',#380,POSITIVE_LENGTH_MEASURE(0.129999995232),#381) ;
#27=SURFACE_STYLE_USAGE(.BOTH.,#26) ;
#26=SURFACE_SIDE_STYLE(' ',(#25)) ;
#25=SURFACE_STYLE_FILL_AREA(#24) ;
#24=FILL_AREA_STYLE(' ',(#23)) ;
#23=FILL_AREA_STYLE_COLOUR(' ',#22) ;
#38=VECTOR('Line Direction',#37,1.) ;
#54=VECTOR('Line Direction',#53,1.) ;
#95=VECTOR('Line Direction',#94,1.) ;
#104=VECTOR('Line Direction',#103,1.) ;
#111=VECTOR('Line Direction',#110,1.) ;
#118=VECTOR('Line Direction',#117,1.) ;
#175=VECTOR('Line Direction',#174,1.) ;
#182=VECTOR('Line Direction',#181,1.) ;
#189=VECTOR('Line Direction',#188,1.) ;
#206=VECTOR('Line Direction',#205,1.) ;
#213=VECTOR('Line Direction',#212,1.) ;
#230=VECTOR('Line Direction',#229,1.) ;
#237=VECTOR('Line Direction',#236,1.) ;
#254=VECTOR('Line Direction',#253,1.) ;
#323=VECTOR('Line Direction',#322,1.) ;
#328=VECTOR('Line Direction',#327,1.) ;
#352=VECTOR('Line Direction',#351,1.) ;
#357=VECTOR('Line Direction',#356,1.) ;
#32=DIRECTION('Axis2P3D Direction',(-0.,1.,0.)) ;
#33=DIRECTION('Axis2P3D XDirection',(1.,0.,0.)) ;
#37=DIRECTION('Vector Direction',(0.,1.,0.)) ;
#46=DIRECTION('Axis2P3D Direction',(-0.,1.,0.)) ;
#53=DIRECTION('Vector Direction',(0.,1.,0.)) ;
#60=DIRECTION('Axis2P3D Direction',(-0.,1.,0.)) ;
#72=DIRECTION('Axis2P3D Direction',(-0.,1.,0.)) ;
#77=DIRECTION('Axis2P3D Direction',(-0.,1.,0.)) ;
#89=DIRECTION('Axis2P3D Direction',(0.,1.,-0.)) ;
#90=DIRECTION('Axis2P3D XDirection',(-1.,0.,0.)) ;
#94=DIRECTION('Vector Direction',(-1.,0.,0.)) ;
#103=DIRECTION('Vector Direction',(0.,0.,1.)) ;
#110=DIRECTION('Vector Direction',(1.,0.,0.)) ;
#117=DIRECTION('Vector Direction',(0.,0.,-1.)) ;
#132=DIRECTION('Axis2P3D Direction',(0.,1.,-0.)) ;
#141=DIRECTION('Axis2P3D Direction',(0.,1.,-0.)) ;
#150=DIRECTION('Axis2P3D Direction',(0.,1.,-0.)) ;
#159=DIRECTION('Axis2P3D Direction',(0.,1.,-0.)) ;
#169=DIRECTION('Axis2P3D Direction',(0.,0.,-1.)) ;
#170=DIRECTION('Axis2P3D XDirection',(-1.,0.,0.)) ;
#174=DIRECTION('Vector Direction',(0.,1.,0.)) ;
#181=DIRECTION('Vector Direction',(-1.,0.,0.)) ;
#188=DIRECTION('Vector Direction',(0.,1.,0.)) ;
#200=DIRECTION('Axis2P3D Direction',(-1.,0.,0.)) ;
#201=DIRECTION('Axis2P3D XDirection',(0.,0.,1.)) ;
#205=DIRECTION('Vector Direction',(0.,0.,1.)) ;
#212=DIRECTION('Vector Direction',(0.,1.,0.)) ;
#224=DIRECTION('Axis2P3D Direction',(0.,0.,1.)) ;
#225=DIRECTION('Axis2P3D XDirection',(1.,0.,0.)) ;
#229=DIRECTION('Vector Direction',(1.,0.,0.)) ;
#236=DIRECTION('Vector Direction',(0.,1.,0.)) ;
#248=DIRECTION('Axis2P3D Direction',(1.,-0.,0.)) ;
#249=DIRECTION('Axis2P3D XDirection',(0.,0.,-1.)) ;
#253=DIRECTION('Vector Direction',(0.,0.,-1.)) ;
#265=DIRECTION('Axis2P3D Direction',(0.,1.,-0.)) ;
#266=DIRECTION('Axis2P3D XDirection',(-1.,0.,0.)) ;
#280=DIRECTION('Axis2P3D Direction',(0.,1.,-0.)) ;
#289=DIRECTION('Axis2P3D Direction',(0.,1.,-0.)) ;
#298=DIRECTION('Axis2P3D Direction',(0.,1.,-0.)) ;
#307=DIRECTION('Axis2P3D Direction',(0.,1.,-0.)) ;
#317=DIRECTION('Axis2P3D Direction',(-0.,1.,0.)) ;
#318=DIRECTION('Axis2P3D XDirection',(1.,0.,0.)) ;
#322=DIRECTION('Vector Direction',(0.,1.,0.)) ;
#327=DIRECTION('Vector Direction',(0.,1.,0.)) ;
#346=DIRECTION('Axis2P3D Direction',(-0.,1.,0.)) ;
#347=DIRECTION('Axis2P3D XDirection',(1.,0.,-3.48305262627E-016)) ;
#351=DIRECTION('Vector Direction',(0.,1.,0.)) ;
#356=DIRECTION('Vector Direction',(0.,1.,0.)) ;
#377=DIRECTION('Axis2P3D Direction',(0.,0.,1.)) ;
#378=DIRECTION('Axis2P3D XDirection',(1.,0.,0.)) ;
#15=UNCERTAINTY_MEASURE_WITH_UNIT(LENGTH_MEASURE(0.005),#12,'distance_accuracy_value','CONFUSED CURVE UNCERTAINTY') ;
#18=AXIS2_PLACEMENT_3D(' ',#17,$,$) ;
#34=AXIS2_PLACEMENT_3D('Cylinder Axis2P3D',#31,#32,#33) ;
#47=AXIS2_PLACEMENT_3D('Circle Axis2P3D',#45,#46,$) ;
#61=AXIS2_PLACEMENT_3D('Circle Axis2P3D',#59,#60,$) ;
#73=AXIS2_PLACEMENT_3D('Circle Axis2P3D',#71,#72,$) ;
#78=AXIS2_PLACEMENT_3D('Circle Axis2P3D',#76,#77,$) ;
#91=AXIS2_PLACEMENT_3D('Plane Axis2P3D',#88,#89,#90) ;
#133=AXIS2_PLACEMENT_3D('Circle Axis2P3D',#131,#132,$) ;
#142=AXIS2_PLACEMENT_3D('Circle Axis2P3D',#140,#141,$) ;
#151=AXIS2_PLACEMENT_3D('Circle Axis2P3D',#149,#150,$) ;
#160=AXIS2_PLACEMENT_3D('Circle Axis2P3D',#158,#159,$) ;
#171=AXIS2_PLACEMENT_3D('Plane Axis2P3D',#168,#169,#170) ;
#202=AXIS2_PLACEMENT_3D('Plane Axis2P3D',#199,#200,#201) ;
#226=AXIS2_PLACEMENT_3D('Plane Axis2P3D',#223,#224,#225) ;
#250=AXIS2_PLACEMENT_3D('Plane Axis2P3D',#247,#248,#249) ;
#267=AXIS2_PLACEMENT_3D('Plane Axis2P3D',#264,#265,#266) ;
#281=AXIS2_PLACEMENT_3D('Circle Axis2P3D',#279,#280,$) ;
#290=AXIS2_PLACEMENT_3D('Circle Axis2P3D',#288,#289,$) ;
#299=AXIS2_PLACEMENT_3D('Circle Axis2P3D',#297,#298,$) ;
#308=AXIS2_PLACEMENT_3D('Circle Axis2P3D',#306,#307,$) ;
#319=AXIS2_PLACEMENT_3D('Cylinder Axis2P3D',#316,#317,#318) ;
#348=AXIS2_PLACEMENT_3D('Cylinder Axis2P3D',#345,#346,#347) ;
#379=AXIS2_PLACEMENT_3D('Rep\X2\00E8\X0\re.1',#376,#377,#378) ;
#39=LINE('Line',#36,#38) ;
#55=LINE('Line',#52,#54) ;
#96=LINE('Line',#93,#95) ;
#105=LINE('Line',#102,#104) ;
#112=LINE('Line',#109,#111) ;
#119=LINE('Line',#116,#118) ;
#176=LINE('Line',#173,#175) ;
#183=LINE('Line',#180,#182) ;
#190=LINE('Line',#187,#189) ;
#207=LINE('Line',#204,#206) ;
#214=LINE('Line',#211,#213) ;
#231=LINE('Line',#228,#230) ;
#238=LINE('Line',#235,#237) ;
#255=LINE('Line',#252,#254) ;
#324=LINE('Line',#321,#323) ;
#329=LINE('Line',#326,#328) ;
#353=LINE('Line',#350,#352) ;
#358=LINE('Line',#355,#357) ;
#48=CIRCLE('generated circle',#47,2.55) ;
#62=CIRCLE('generated circle',#61,2.55) ;
#74=CIRCLE('generated circle',#73,2.55) ;
#79=CIRCLE('generated circle',#78,2.55) ;
#134=CIRCLE('generated circle',#133,2.55) ;
#143=CIRCLE('generated circle',#142,2.55) ;
#152=CIRCLE('generated circle',#151,2.55) ;
#161=CIRCLE('generated circle',#160,2.55) ;
#282=CIRCLE('generated circle',#281,2.55) ;
#291=CIRCLE('generated circle',#290,2.55) ;
#300=CIRCLE('generated circle',#299,2.55) ;
#309=CIRCLE('generated circle',#308,2.55) ;
#92=PLANE('',#91) ;
#172=PLANE('',#171) ;
#203=PLANE('',#202) ;
#227=PLANE('',#226) ;
#251=PLANE('',#250) ;
#268=PLANE('',#267) ;
#35=CYLINDRICAL_SURFACE('generated cylinder',#34,2.55) ;
#320=CYLINDRICAL_SURFACE('generated cylinder',#319,2.55) ;
#349=CYLINDRICAL_SURFACE('generated cylinder',#348,2.55) ;
#130=FACE_BOUND('',#127,.T.) ;
#148=FACE_BOUND('',#145,.T.) ;
#166=FACE_BOUND('',#163,.T.) ;
#278=FACE_BOUND('',#275,.T.) ;
#296=FACE_BOUND('',#293,.T.) ;
#314=FACE_BOUND('',#311,.T.) ;
#44=EDGE_CURVE('',#41,#43,#39,.F.) ;
#51=EDGE_CURVE('',#41,#50,#48,.T.) ;
#58=EDGE_CURVE('',#50,#57,#55,.F.) ;
#63=EDGE_CURVE('',#43,#57,#62,.T.) ;
#75=EDGE_CURVE('',#50,#41,#74,.T.) ;
#80=EDGE_CURVE('',#57,#43,#79,.T.) ;
#101=EDGE_CURVE('',#98,#100,#96,.F.) ;
#108=EDGE_CURVE('',#100,#107,#105,.F.) ;
#115=EDGE_CURVE('',#107,#114,#112,.F.) ;
#120=EDGE_CURVE('',#114,#98,#119,.F.) ;
#139=EDGE_CURVE('',#136,#138,#134,.T.) ;
#144=EDGE_CURVE('',#138,#136,#143,.T.) ;
#157=EDGE_CURVE('',#154,#156,#152,.T.) ;
#162=EDGE_CURVE('',#156,#154,#161,.T.) ;
#179=EDGE_CURVE('',#178,#98,#176,.T.) ;
#186=EDGE_CURVE('',#178,#185,#183,.F.) ;
#191=EDGE_CURVE('',#185,#100,#190,.T.) ;
#210=EDGE_CURVE('',#185,#209,#207,.F.) ;
#215=EDGE_CURVE('',#209,#107,#214,.T.) ;
#234=EDGE_CURVE('',#209,#233,#231,.F.) ;
#239=EDGE_CURVE('',#233,#114,#238,.T.) ;
#256=EDGE_CURVE('',#233,#178,#255,.F.) ;
#287=EDGE_CURVE('',#284,#286,#282,.T.) ;
#292=EDGE_CURVE('',#286,#284,#291,.T.) ;
#305=EDGE_CURVE('',#302,#304,#300,.T.) ;
#310=EDGE_CURVE('',#304,#302,#309,.T.) ;
#325=EDGE_CURVE('',#136,#286,#324,.F.) ;
#330=EDGE_CURVE('',#138,#284,#329,.F.) ;
#354=EDGE_CURVE('',#154,#304,#353,.F.) ;
#359=EDGE_CURVE('',#156,#302,#358,.F.) ;
#30=CLOSED_SHELL('Closed Shell',(#70,#87,#167,#198,#222,#246,#263,#315,#337,#344,#366,#373)) ;
#385=CONSTRUCTIVE_GEOMETRY_REPRESENTATION('supplemental geometry',(#379),#16) ;
#375=SHAPE_REPRESENTATION_RELATIONSHIP(' ',' ',#19,#374) ;
#64=EDGE_LOOP('',(#65,#66,#67,#68)) ;
#81=EDGE_LOOP('',(#82,#83,#84,#85)) ;
#121=EDGE_LOOP('',(#122,#123,#124,#125)) ;
#127=EDGE_LOOP('',(#128,#129)) ;
#145=EDGE_LOOP('',(#146,#147)) ;
#163=EDGE_LOOP('',(#164,#165)) ;
#192=EDGE_LOOP('',(#193,#194,#195,#196)) ;
#216=EDGE_LOOP('',(#217,#218,#219,#220)) ;
#240=EDGE_LOOP('',(#241,#242,#243,#244)) ;
#257=EDGE_LOOP('',(#258,#259,#260,#261)) ;
#269=EDGE_LOOP('',(#270,#271,#272,#273)) ;
#275=EDGE_LOOP('',(#276,#277)) ;
#293=EDGE_LOOP('',(#294,#295)) ;
#311=EDGE_LOOP('',(#312,#313)) ;
#331=EDGE_LOOP('',(#332,#333,#334,#335)) ;
#338=EDGE_LOOP('',(#339,#340,#341,#342)) ;
#360=EDGE_LOOP('',(#361,#362,#363,#364)) ;
#367=EDGE_LOOP('',(#368,#369,#370,#371)) ;
#65=ORIENTED_EDGE('',*,*,#44,.F.) ;
#66=ORIENTED_EDGE('',*,*,#51,.T.) ;
#67=ORIENTED_EDGE('',*,*,#58,.T.) ;
#68=ORIENTED_EDGE('',*,*,#63,.F.) ;
#82=ORIENTED_EDGE('',*,*,#58,.F.) ;
#83=ORIENTED_EDGE('',*,*,#75,.T.) ;
#84=ORIENTED_EDGE('',*,*,#44,.T.) ;
#85=ORIENTED_EDGE('',*,*,#80,.F.) ;
#122=ORIENTED_EDGE('',*,*,#101,.T.) ;
#123=ORIENTED_EDGE('',*,*,#108,.T.) ;
#124=ORIENTED_EDGE('',*,*,#115,.T.) ;
#125=ORIENTED_EDGE('',*,*,#120,.T.) ;
#128=ORIENTED_EDGE('',*,*,#75,.F.) ;
#129=ORIENTED_EDGE('',*,*,#51,.F.) ;
#146=ORIENTED_EDGE('',*,*,#139,.F.) ;
#147=ORIENTED_EDGE('',*,*,#144,.F.) ;
#164=ORIENTED_EDGE('',*,*,#157,.F.) ;
#165=ORIENTED_EDGE('',*,*,#162,.F.) ;
#193=ORIENTED_EDGE('',*,*,#179,.F.) ;
#194=ORIENTED_EDGE('',*,*,#186,.T.) ;
#195=ORIENTED_EDGE('',*,*,#191,.T.) ;
#196=ORIENTED_EDGE('',*,*,#101,.F.) ;
#217=ORIENTED_EDGE('',*,*,#191,.F.) ;
#218=ORIENTED_EDGE('',*,*,#210,.T.) ;
#219=ORIENTED_EDGE('',*,*,#215,.T.) ;
#220=ORIENTED_EDGE('',*,*,#108,.F.) ;
#241=ORIENTED_EDGE('',*,*,#215,.F.) ;
#242=ORIENTED_EDGE('',*,*,#234,.T.) ;
#243=ORIENTED_EDGE('',*,*,#239,.T.) ;
#244=ORIENTED_EDGE('',*,*,#115,.F.) ;
#258=ORIENTED_EDGE('',*,*,#239,.F.) ;
#259=ORIENTED_EDGE('',*,*,#256,.T.) ;
#260=ORIENTED_EDGE('',*,*,#179,.T.) ;
#261=ORIENTED_EDGE('',*,*,#120,.F.) ;
#270=ORIENTED_EDGE('',*,*,#256,.F.) ;
#271=ORIENTED_EDGE('',*,*,#234,.F.) ;
#272=ORIENTED_EDGE('',*,*,#210,.F.) ;
#273=ORIENTED_EDGE('',*,*,#186,.F.) ;
#276=ORIENTED_EDGE('',*,*,#63,.T.) ;
#277=ORIENTED_EDGE('',*,*,#80,.T.) ;
#294=ORIENTED_EDGE('',*,*,#287,.T.) ;
#295=ORIENTED_EDGE('',*,*,#292,.T.) ;
#312=ORIENTED_EDGE('',*,*,#305,.T.) ;
#313=ORIENTED_EDGE('',*,*,#310,.T.) ;
#332=ORIENTED_EDGE('',*,*,#325,.F.) ;
#333=ORIENTED_EDGE('',*,*,#139,.T.) ;
#334=ORIENTED_EDGE('',*,*,#330,.T.) ;
#335=ORIENTED_EDGE('',*,*,#292,.F.) ;
#339=ORIENTED_EDGE('',*,*,#330,.F.) ;
#340=ORIENTED_EDGE('',*,*,#144,.T.) ;
#341=ORIENTED_EDGE('',*,*,#325,.T.) ;
#342=ORIENTED_EDGE('',*,*,#287,.F.) ;
#361=ORIENTED_EDGE('',*,*,#354,.F.) ;
#362=ORIENTED_EDGE('',*,*,#157,.T.) ;
#363=ORIENTED_EDGE('',*,*,#359,.T.) ;
#364=ORIENTED_EDGE('',*,*,#310,.F.) ;
#368=ORIENTED_EDGE('',*,*,#359,.F.) ;
#369=ORIENTED_EDGE('',*,*,#162,.T.) ;
#370=ORIENTED_EDGE('',*,*,#354,.T.) ;
#371=ORIENTED_EDGE('',*,*,#305,.F.) ;
#21=MANIFOLD_SOLID_BREP('Corps principal',#30) ;
#41=VERTEX_POINT('',#40) ;
#43=VERTEX_POINT('',#42) ;
#50=VERTEX_POINT('',#49) ;
#57=VERTEX_POINT('',#56) ;
#98=VERTEX_POINT('',#97) ;
#100=VERTEX_POINT('',#99) ;
#107=VERTEX_POINT('',#106) ;
#114=VERTEX_POINT('',#113) ;
#136=VERTEX_POINT('',#135) ;
#138=VERTEX_POINT('',#137) ;
#154=VERTEX_POINT('',#153) ;
#156=VERTEX_POINT('',#155) ;
#178=VERTEX_POINT('',#177) ;
#185=VERTEX_POINT('',#184) ;
#209=VERTEX_POINT('',#208) ;
#233=VERTEX_POINT('',#232) ;
#284=VERTEX_POINT('',#283) ;
#286=VERTEX_POINT('',#285) ;
#302=VERTEX_POINT('',#301) ;
#304=VERTEX_POINT('',#303) ;
#374=ADVANCED_BREP_SHAPE_REPRESENTATION('NONE',(#21),#16) ;
#70=ADVANCED_FACE('Corps principal',(#69),#35,.F.) ;
#87=ADVANCED_FACE('Corps principal',(#86),#35,.F.) ;
#167=ADVANCED_FACE('Corps principal',(#126,#130,#148,#166),#92,.T.) ;
#198=ADVANCED_FACE('Corps principal',(#197),#172,.F.) ;
#222=ADVANCED_FACE('Corps principal',(#221),#203,.F.) ;
#246=ADVANCED_FACE('Corps principal',(#245),#227,.F.) ;
#263=ADVANCED_FACE('Corps principal',(#262),#251,.F.) ;
#315=ADVANCED_FACE('Corps principal',(#274,#278,#296,#314),#268,.F.) ;
#337=ADVANCED_FACE('Corps principal',(#336),#320,.F.) ;
#344=ADVANCED_FACE('Corps principal',(#343),#320,.F.) ;
#366=ADVANCED_FACE('Corps principal',(#365),#349,.F.) ;
#373=ADVANCED_FACE('Corps principal',(#372),#349,.F.) ;
#4=APPLICATION_PROTOCOL_DEFINITION('international standard','ap242_managed_model_based_3d_engineering',2014,#1) ;
#22=COLOUR_RGB('Colour',0.823529411765,0.823529411765,1.) ;
#386=CONSTRUCTIVE_GEOMETRY_REPRESENTATION_RELATIONSHIP('supplemental geometry','',#19,#385) ;
#381=DRAUGHTING_PRE_DEFINED_COLOUR('white') ;
#380=DRAUGHTING_PRE_DEFINED_CURVE_FONT('continuous') ;
#69=FACE_OUTER_BOUND('',#64,.T.) ;
#86=FACE_OUTER_BOUND('',#81,.T.) ;
#126=FACE_OUTER_BOUND('',#121,.T.) ;
#197=FACE_OUTER_BOUND('',#192,.T.) ;
#221=FACE_OUTER_BOUND('',#216,.T.) ;
#245=FACE_OUTER_BOUND('',#240,.T.) ;
#262=FACE_OUTER_BOUND('',#257,.T.) ;
#274=FACE_OUTER_BOUND('',#269,.T.) ;
#336=FACE_OUTER_BOUND('',#331,.T.) ;
#343=FACE_OUTER_BOUND('',#338,.T.) ;
#365=FACE_OUTER_BOUND('',#360,.T.) ;
#372=FACE_OUTER_BOUND('',#367,.T.) ;
#9=PRODUCT_CATEGORY_RELATIONSHIP(' ',' ',#7,#8) ;
#6=PRODUCT_DEFINITION_FORMATION_WITH_SPECIFIED_SOURCE('',' ',#5,.NOT_KNOWN.) ;
#20=SHAPE_DEFINITION_REPRESENTATION(#11,#19) ;
#12=(LENGTH_UNIT()NAMED_UNIT(*)SI_UNIT(.MILLI.,.METRE.)) ;
#13=(NAMED_UNIT(*)PLANE_ANGLE_UNIT()SI_UNIT($,.RADIAN.)) ;
#14=(NAMED_UNIT(*)SI_UNIT($,.STERADIAN.)SOLID_ANGLE_UNIT()) ;
#16=(GEOMETRIC_REPRESENTATION_CONTEXT(3)GLOBAL_UNCERTAINTY_ASSIGNED_CONTEXT((#15))GLOBAL_UNIT_ASSIGNED_CONTEXT((#12,#13,#14))REPRESENTATION_CONTEXT(' ',' ')) ;
ENDSEC;
END-ISO-10303-21;
