ISO-10303-21;
HEADER;
/* Generated by software containing ST-Developer
 * from STEP Tools, Inc. (www.steptools.com) 
 */

FILE_DESCRIPTION(
/* description */ (''),
/* implementation_level */ '2;1');

FILE_NAME(
/* name */ 'Pige_01.stp',
/* time_stamp */ '2023-01-09T08:34:30+01:00',
/* author */ ('ethomas'),
/* organization */ (''),
/* preprocessor_version */ 'ST-DEVELOPER v19.2',
/* originating_system */ 'Autodesk Inventor 2023',
/* authorisation */ '');

FILE_SCHEMA (('AUTOMOTIVE_DESIGN { 1 0 10303 214 3 1 1 }'));
ENDSEC;

DATA;
#10=MECHANICAL_DESIGN_GEOMETRIC_PRESENTATION_REPRESENTATION('',(#16,#17,
#18,#19,#20),#169);
#11=SHAPE_REPRESENTATION_RELATIONSHIP('SRR','None',#176,#12);
#12=ADVANCED_BREP_SHAPE_REPRESENTATION('',(#13),#168);
#13=MANIFOLD_SOLID_BREP('Pige_02',#85);
#14=FACE_BOUND('',#36,.T.);
#15=CONICAL_SURFACE('',#112,3.39999999990003,0.785398163397413);
#16=STYLED_ITEM('',(#186),#81);
#17=STYLED_ITEM('',(#187),#82);
#18=STYLED_ITEM('',(#187),#83);
#19=STYLED_ITEM('',(#187),#84);
#20=STYLED_ITEM('',(#185),#13);
#21=PLANE('',#111);
#22=PLANE('',#117);
#23=PLANE('',#118);
#24=FACE_OUTER_BOUND('',#30,.T.);
#25=FACE_OUTER_BOUND('',#31,.T.);
#26=FACE_OUTER_BOUND('',#32,.T.);
#27=FACE_OUTER_BOUND('',#33,.T.);
#28=FACE_OUTER_BOUND('',#34,.T.);
#29=FACE_OUTER_BOUND('',#35,.T.);
#30=EDGE_LOOP('',(#61,#62,#63,#64));
#31=EDGE_LOOP('',(#65));
#32=EDGE_LOOP('',(#66,#67,#68,#69));
#33=EDGE_LOOP('',(#70,#71,#72,#73));
#34=EDGE_LOOP('',(#74));
#35=EDGE_LOOP('',(#75));
#36=EDGE_LOOP('',(#76));
#37=LINE('',#151,#40);
#38=LINE('',#158,#41);
#39=LINE('',#162,#42);
#40=VECTOR('',#125,2.);
#41=VECTOR('',#134,3.39999999990003);
#42=VECTOR('',#139,3.8999999999);
#43=CIRCLE('',#109,2.);
#44=CIRCLE('',#110,2.);
#45=CIRCLE('',#113,3.8999999999);
#46=CIRCLE('',#114,2.89999999990006);
#47=CIRCLE('',#116,3.8999999999);
#48=VERTEX_POINT('',#148);
#49=VERTEX_POINT('',#150);
#50=VERTEX_POINT('',#155);
#51=VERTEX_POINT('',#157);
#52=VERTEX_POINT('',#161);
#53=EDGE_CURVE('',#48,#48,#43,.T.);
#54=EDGE_CURVE('',#48,#49,#37,.T.);
#55=EDGE_CURVE('',#49,#49,#44,.T.);
#56=EDGE_CURVE('',#50,#50,#45,.T.);
#57=EDGE_CURVE('',#50,#51,#38,.T.);
#58=EDGE_CURVE('',#51,#51,#46,.T.);
#59=EDGE_CURVE('',#50,#52,#39,.T.);
#60=EDGE_CURVE('',#52,#52,#47,.T.);
#61=ORIENTED_EDGE('',*,*,#53,.F.);
#62=ORIENTED_EDGE('',*,*,#54,.T.);
#63=ORIENTED_EDGE('',*,*,#55,.F.);
#64=ORIENTED_EDGE('',*,*,#54,.F.);
#65=ORIENTED_EDGE('',*,*,#53,.T.);
#66=ORIENTED_EDGE('',*,*,#56,.T.);
#67=ORIENTED_EDGE('',*,*,#57,.T.);
#68=ORIENTED_EDGE('',*,*,#58,.T.);
#69=ORIENTED_EDGE('',*,*,#57,.F.);
#70=ORIENTED_EDGE('',*,*,#56,.F.);
#71=ORIENTED_EDGE('',*,*,#59,.T.);
#72=ORIENTED_EDGE('',*,*,#60,.T.);
#73=ORIENTED_EDGE('',*,*,#59,.F.);
#74=ORIENTED_EDGE('',*,*,#58,.F.);
#75=ORIENTED_EDGE('',*,*,#60,.F.);
#76=ORIENTED_EDGE('',*,*,#55,.T.);
#77=CYLINDRICAL_SURFACE('',#108,2.);
#78=CYLINDRICAL_SURFACE('',#115,3.8999999999);
#79=ADVANCED_FACE('',(#24),#77,.T.);
#80=ADVANCED_FACE('',(#25),#21,.T.);
#81=ADVANCED_FACE('',(#26),#15,.T.);
#82=ADVANCED_FACE('',(#27),#78,.T.);
#83=ADVANCED_FACE('',(#28),#22,.T.);
#84=ADVANCED_FACE('',(#29,#14),#23,.F.);
#85=CLOSED_SHELL('',(#79,#80,#81,#82,#83,#84));
#86=DERIVED_UNIT_ELEMENT(#89,1.);
#87=DERIVED_UNIT_ELEMENT(#171,-3.);
#88=DIMENSIONAL_EXPONENTS(0.,1.,0.,0.,0.,0.,0.);
#89=(
CONVERSION_BASED_UNIT('gram',#91)
MASS_UNIT()
NAMED_UNIT(#88)
);
#90=(
MASS_UNIT()
NAMED_UNIT(*)
SI_UNIT(.KILO.,.GRAM.)
);
#91=MASS_MEASURE_WITH_UNIT(MASS_MEASURE(0.001),#90);
#92=DERIVED_UNIT((#86,#87));
#93=MEASURE_REPRESENTATION_ITEM('density measure',
POSITIVE_RATIO_MEASURE(1.),#92);
#94=PROPERTY_DEFINITION_REPRESENTATION(#99,#96);
#95=PROPERTY_DEFINITION_REPRESENTATION(#100,#97);
#96=REPRESENTATION('material name',(#98),#168);
#97=REPRESENTATION('density',(#93),#168);
#98=DESCRIPTIVE_REPRESENTATION_ITEM('G\X\E9n\X\E9rique','G\X\E9n\X\E9r
ique');
#99=PROPERTY_DEFINITION('material property','material name',#178);
#100=PROPERTY_DEFINITION('material property','density of part',#178);
#101=DATE_TIME_ROLE('creation_date');
#102=APPLIED_DATE_AND_TIME_ASSIGNMENT(#103,#101,(#178));
#103=DATE_AND_TIME(#104,#105);
#104=CALENDAR_DATE(2023,6,1);
#105=LOCAL_TIME(0,0,0.,#106);
#106=COORDINATED_UNIVERSAL_TIME_OFFSET(0,0,.BEHIND.);
#107=AXIS2_PLACEMENT_3D('',#146,#119,#120);
#108=AXIS2_PLACEMENT_3D('',#147,#121,#122);
#109=AXIS2_PLACEMENT_3D('',#149,#123,#124);
#110=AXIS2_PLACEMENT_3D('',#152,#126,#127);
#111=AXIS2_PLACEMENT_3D('',#153,#128,#129);
#112=AXIS2_PLACEMENT_3D('',#154,#130,#131);
#113=AXIS2_PLACEMENT_3D('',#156,#132,#133);
#114=AXIS2_PLACEMENT_3D('',#159,#135,#136);
#115=AXIS2_PLACEMENT_3D('',#160,#137,#138);
#116=AXIS2_PLACEMENT_3D('',#163,#140,#141);
#117=AXIS2_PLACEMENT_3D('',#164,#142,#143);
#118=AXIS2_PLACEMENT_3D('',#165,#144,#145);
#119=DIRECTION('axis',(0.,0.,1.));
#120=DIRECTION('refdir',(1.,0.,0.));
#121=DIRECTION('center_axis',(0.,0.,-1.));
#122=DIRECTION('ref_axis',(-1.,0.,0.));
#123=DIRECTION('center_axis',(0.,0.,-1.));
#124=DIRECTION('ref_axis',(-1.,0.,0.));
#125=DIRECTION('',(0.,0.,1.));
#126=DIRECTION('center_axis',(0.,0.,1.));
#127=DIRECTION('ref_axis',(-1.,0.,0.));
#128=DIRECTION('center_axis',(0.,0.,-1.));
#129=DIRECTION('ref_axis',(-1.,0.,0.));
#130=DIRECTION('center_axis',(0.,0.,-1.));
#131=DIRECTION('ref_axis',(1.,0.,0.));
#132=DIRECTION('center_axis',(0.,0.,1.));
#133=DIRECTION('ref_axis',(1.,0.,0.));
#134=DIRECTION('',(0.707106781186522,-8.65956056235463E-17,0.707106781186573));
#135=DIRECTION('center_axis',(0.,0.,-1.));
#136=DIRECTION('ref_axis',(1.,0.,0.));
#137=DIRECTION('center_axis',(0.,0.,1.));
#138=DIRECTION('ref_axis',(1.,0.,0.));
#139=DIRECTION('',(0.,0.,-1.));
#140=DIRECTION('center_axis',(0.,0.,1.));
#141=DIRECTION('ref_axis',(1.,0.,0.));
#142=DIRECTION('center_axis',(0.,0.,1.));
#143=DIRECTION('ref_axis',(1.,0.,0.));
#144=DIRECTION('center_axis',(0.,0.,1.));
#145=DIRECTION('ref_axis',(1.,0.,0.));
#146=CARTESIAN_POINT('',(0.,0.,0.));
#147=CARTESIAN_POINT('Origin',(802.186,50.0000000007,181.54));
#148=CARTESIAN_POINT('',(804.186,50.0000000007,171.54));
#149=CARTESIAN_POINT('Origin',(802.186,50.0000000007,171.54));
#150=CARTESIAN_POINT('',(804.186,50.0000000007,181.54));
#151=CARTESIAN_POINT('',(804.186,50.0000000007,181.54));
#152=CARTESIAN_POINT('Origin',(802.186,50.0000000007,181.54));
#153=CARTESIAN_POINT('Origin',(802.186,50.0000000007,171.54));
#154=CARTESIAN_POINT('Origin',(802.186,50.0000000007,193.93));
#155=CARTESIAN_POINT('',(798.2860000001,50.0000000007,193.43));
#156=CARTESIAN_POINT('Origin',(802.186,50.0000000007,193.43));
#157=CARTESIAN_POINT('',(799.2860000001,50.0000000007,194.43));
#158=CARTESIAN_POINT('',(798.7860000001,50.0000000007,193.93));
#159=CARTESIAN_POINT('Origin',(802.186,50.0000000007,194.43));
#160=CARTESIAN_POINT('Origin',(802.186,50.0000000007,181.54));
#161=CARTESIAN_POINT('',(798.2860000001,50.0000000007,181.54));
#162=CARTESIAN_POINT('',(798.2860000001,50.0000000007,181.54));
#163=CARTESIAN_POINT('Origin',(802.186,50.0000000007,181.54));
#164=CARTESIAN_POINT('Origin',(802.186,50.0000000007,194.43));
#165=CARTESIAN_POINT('Origin',(802.186,50.0000000007,181.54));
#166=UNCERTAINTY_MEASURE_WITH_UNIT(LENGTH_MEASURE(0.01),#170,
'DISTANCE_ACCURACY_VALUE',
'Maximum model space distance between geometric entities at asserted c
onnectivities');
#167=UNCERTAINTY_MEASURE_WITH_UNIT(LENGTH_MEASURE(0.01),#170,
'DISTANCE_ACCURACY_VALUE',
'Maximum model space distance between geometric entities at asserted c
onnectivities');
#168=(
GEOMETRIC_REPRESENTATION_CONTEXT(3)
GLOBAL_UNCERTAINTY_ASSIGNED_CONTEXT((#166))
GLOBAL_UNIT_ASSIGNED_CONTEXT((#170,#172,#173))
REPRESENTATION_CONTEXT('','3D')
);
#169=(
GEOMETRIC_REPRESENTATION_CONTEXT(3)
GLOBAL_UNCERTAINTY_ASSIGNED_CONTEXT((#167))
GLOBAL_UNIT_ASSIGNED_CONTEXT((#170,#172,#173))
REPRESENTATION_CONTEXT('','3D')
);
#170=(
LENGTH_UNIT()
NAMED_UNIT(*)
SI_UNIT(.MILLI.,.METRE.)
);
#171=(
LENGTH_UNIT()
NAMED_UNIT(*)
SI_UNIT(.CENTI.,.METRE.)
);
#172=(
NAMED_UNIT(*)
PLANE_ANGLE_UNIT()
SI_UNIT($,.RADIAN.)
);
#173=(
NAMED_UNIT(*)
SI_UNIT($,.STERADIAN.)
SOLID_ANGLE_UNIT()
);
#174=SHAPE_DEFINITION_REPRESENTATION(#175,#176);
#175=PRODUCT_DEFINITION_SHAPE('',$,#178);
#176=SHAPE_REPRESENTATION('',(#107),#168);
#177=PRODUCT_DEFINITION_CONTEXT('part definition',#182,'design');
#178=PRODUCT_DEFINITION('Pige_01','Pige_01',#179,#177);
#179=PRODUCT_DEFINITION_FORMATION('',$,#184);
#180=PRODUCT_RELATED_PRODUCT_CATEGORY('Pige_01','Pige_01',(#184));
#181=APPLICATION_PROTOCOL_DEFINITION('international standard',
'automotive_design',2009,#182);
#182=APPLICATION_CONTEXT(
'Core Data for Automotive Mechanical Design Process');
#183=PRODUCT_CONTEXT('part definition',#182,'mechanical');
#184=PRODUCT('Pige_01','Pige_01',$,(#183));
#185=PRESENTATION_STYLE_ASSIGNMENT((#188));
#186=PRESENTATION_STYLE_ASSIGNMENT((#189));
#187=PRESENTATION_STYLE_ASSIGNMENT((#190));
#188=SURFACE_STYLE_USAGE(.BOTH.,#197);
#189=SURFACE_STYLE_USAGE(.BOTH.,#198);
#190=SURFACE_STYLE_USAGE(.BOTH.,#199);
#191=SURFACE_STYLE_RENDERING_WITH_PROPERTIES($,#209,(#194));
#192=SURFACE_STYLE_RENDERING_WITH_PROPERTIES($,#210,(#195));
#193=SURFACE_STYLE_RENDERING_WITH_PROPERTIES($,#211,(#196));
#194=SURFACE_STYLE_TRANSPARENT(0.);
#195=SURFACE_STYLE_TRANSPARENT(0.);
#196=SURFACE_STYLE_TRANSPARENT(0.);
#197=SURFACE_SIDE_STYLE('',(#200,#191));
#198=SURFACE_SIDE_STYLE('',(#201,#192));
#199=SURFACE_SIDE_STYLE('',(#202,#193));
#200=SURFACE_STYLE_FILL_AREA(#203);
#201=SURFACE_STYLE_FILL_AREA(#204);
#202=SURFACE_STYLE_FILL_AREA(#205);
#203=FILL_AREA_STYLE('',(#206));
#204=FILL_AREA_STYLE('',(#207));
#205=FILL_AREA_STYLE('',(#208));
#206=FILL_AREA_STYLE_COLOUR('',#209);
#207=FILL_AREA_STYLE_COLOUR('',#210);
#208=FILL_AREA_STYLE_COLOUR('',#211);
#209=COLOUR_RGB('',0.749019607843137,0.749019607843137,0.749019607843137);
#210=COLOUR_RGB('',0.745098039215686,0.737254901960784,0.729411764705882);
#211=COLOUR_RGB('',1.,1.,0.);
ENDSEC;
END-ISO-10303-21;
