ISO-10303-21;
HEADER;
/* Generated by software containing ST-Developer
 * from STEP Tools, Inc. (www.steptools.com) 
 */

FILE_DESCRIPTION(
/* description */ (''),
/* implementation_level */ '2;1');

FILE_NAME(
/* name */ 'usinage pretailleuse v1.step',
/* time_stamp */ '2023-01-08T21:09:25+01:00',
/* author */ (''),
/* organization */ (''),
/* preprocessor_version */ 'ST-DEVELOPER v19.2',
/* originating_system */ 'Autodesk Translation Framework v11.17.0.187',

/* authorisation */ '');

FILE_SCHEMA (('AUTOMOTIVE_DESIGN { 1 0 10303 214 3 1 1 }'));
ENDSEC;

DATA;
#10=MECHANICAL_DESIGN_GEOMETRIC_PRESENTATION_REPRESENTATION('',(#13),#577);
#11=SHAPE_REPRESENTATION_RELATIONSHIP('SRR','None',#584,#12);
#12=ADVANCED_BREP_SHAPE_REPRESENTATION('',(#14),#576);
#13=STYLED_ITEM('',(#593),#14);
#14=MANIFOLD_SOLID_BREP('Corps1',#327);
#15=FACE_BOUND('',#68,.T.);
#16=FACE_BOUND('',#69,.T.);
#17=FACE_BOUND('',#70,.T.);
#18=FACE_BOUND('',#71,.T.);
#19=FACE_BOUND('',#72,.T.);
#20=FACE_BOUND('',#73,.T.);
#21=FACE_BOUND('',#74,.T.);
#22=FACE_BOUND('',#78,.T.);
#23=FACE_BOUND('',#80,.T.);
#24=FACE_BOUND('',#83,.T.);
#25=FACE_BOUND('',#84,.T.);
#26=FACE_BOUND('',#85,.T.);
#27=FACE_BOUND('',#86,.T.);
#28=FACE_BOUND('',#87,.T.);
#29=FACE_BOUND('',#88,.T.);
#30=FACE_BOUND('',#89,.T.);
#31=FACE_BOUND('',#94,.T.);
#32=PLANE('',#364);
#33=PLANE('',#370);
#34=PLANE('',#372);
#35=PLANE('',#376);
#36=PLANE('',#378);
#37=PLANE('',#383);
#38=CONICAL_SURFACE('',#359,45.5,0.785398163397449);
#39=CONICAL_SURFACE('',#366,20.5,0.785398163397448);
#40=FACE_OUTER_BOUND('',#59,.T.);
#41=FACE_OUTER_BOUND('',#60,.T.);
#42=FACE_OUTER_BOUND('',#61,.T.);
#43=FACE_OUTER_BOUND('',#62,.T.);
#44=FACE_OUTER_BOUND('',#63,.T.);
#45=FACE_OUTER_BOUND('',#64,.T.);
#46=FACE_OUTER_BOUND('',#65,.T.);
#47=FACE_OUTER_BOUND('',#66,.T.);
#48=FACE_OUTER_BOUND('',#67,.T.);
#49=FACE_OUTER_BOUND('',#75,.T.);
#50=FACE_OUTER_BOUND('',#76,.T.);
#51=FACE_OUTER_BOUND('',#77,.T.);
#52=FACE_OUTER_BOUND('',#79,.T.);
#53=FACE_OUTER_BOUND('',#81,.T.);
#54=FACE_OUTER_BOUND('',#82,.T.);
#55=FACE_OUTER_BOUND('',#90,.T.);
#56=FACE_OUTER_BOUND('',#91,.T.);
#57=FACE_OUTER_BOUND('',#92,.T.);
#58=FACE_OUTER_BOUND('',#93,.T.);
#59=EDGE_LOOP('',(#217,#218,#219,#220));
#60=EDGE_LOOP('',(#221,#222,#223,#224));
#61=EDGE_LOOP('',(#225,#226,#227,#228));
#62=EDGE_LOOP('',(#229,#230,#231,#232));
#63=EDGE_LOOP('',(#233,#234,#235,#236));
#64=EDGE_LOOP('',(#237,#238,#239,#240));
#65=EDGE_LOOP('',(#241,#242,#243,#244));
#66=EDGE_LOOP('',(#245,#246,#247,#248));
#67=EDGE_LOOP('',(#249));
#68=EDGE_LOOP('',(#250));
#69=EDGE_LOOP('',(#251));
#70=EDGE_LOOP('',(#252));
#71=EDGE_LOOP('',(#253));
#72=EDGE_LOOP('',(#254));
#73=EDGE_LOOP('',(#255));
#74=EDGE_LOOP('',(#256));
#75=EDGE_LOOP('',(#257,#258,#259,#260));
#76=EDGE_LOOP('',(#261,#262,#263,#264));
#77=EDGE_LOOP('',(#265));
#78=EDGE_LOOP('',(#266));
#79=EDGE_LOOP('',(#267,#268));
#80=EDGE_LOOP('',(#269));
#81=EDGE_LOOP('',(#270,#271,#272,#273));
#82=EDGE_LOOP('',(#274));
#83=EDGE_LOOP('',(#275));
#84=EDGE_LOOP('',(#276));
#85=EDGE_LOOP('',(#277));
#86=EDGE_LOOP('',(#278));
#87=EDGE_LOOP('',(#279));
#88=EDGE_LOOP('',(#280));
#89=EDGE_LOOP('',(#281));
#90=EDGE_LOOP('',(#282,#283,#284,#285));
#91=EDGE_LOOP('',(#286,#287,#288,#289));
#92=EDGE_LOOP('',(#290,#291,#292,#293));
#93=EDGE_LOOP('',(#294));
#94=EDGE_LOOP('',(#295,#296));
#95=LINE('',#493,#111);
#96=LINE('',#499,#112);
#97=LINE('',#505,#113);
#98=LINE('',#511,#114);
#99=LINE('',#517,#115);
#100=LINE('',#523,#116);
#101=LINE('',#529,#117);
#102=LINE('',#533,#118);
#103=LINE('',#542,#119);
#104=LINE('',#545,#120);
#105=LINE('',#552,#121);
#106=LINE('',#557,#122);
#107=LINE('',#564,#123);
#108=LINE('',#565,#124);
#109=LINE('',#566,#125);
#110=LINE('',#571,#126);
#111=VECTOR('',#390,3.4);
#112=VECTOR('',#397,3.4);
#113=VECTOR('',#404,3.4);
#114=VECTOR('',#411,3.4);
#115=VECTOR('',#418,3.4);
#116=VECTOR('',#425,3.4);
#117=VECTOR('',#432,45.5);
#118=VECTOR('',#437,47.5);
#119=VECTOR('',#448,20.5);
#120=VECTOR('',#453,22.5);
#121=VECTOR('',#460,10.);
#122=VECTOR('',#467,6.);
#123=VECTOR('',#474,10.);
#124=VECTOR('',#475,10.);
#125=VECTOR('',#476,10.);
#126=VECTOR('',#483,17.5);
#127=CIRCLE('',#342,3.4);
#128=CIRCLE('',#343,3.4);
#129=CIRCLE('',#345,3.4);
#130=CIRCLE('',#346,3.4);
#131=CIRCLE('',#348,3.4);
#132=CIRCLE('',#349,3.4);
#133=CIRCLE('',#351,3.4);
#134=CIRCLE('',#352,3.4);
#135=CIRCLE('',#354,3.4);
#136=CIRCLE('',#355,3.4);
#137=CIRCLE('',#357,3.4);
#138=CIRCLE('',#358,3.4);
#139=CIRCLE('',#360,43.5);
#140=CIRCLE('',#361,47.5);
#141=CIRCLE('',#363,47.5);
#142=CIRCLE('',#365,22.5);
#143=CIRCLE('',#367,18.5);
#144=CIRCLE('',#368,22.5);
#145=CIRCLE('',#371,6.);
#146=CIRCLE('',#373,12.5);
#147=CIRCLE('',#374,6.);
#148=CIRCLE('',#377,17.5);
#149=CIRCLE('',#380,12.5);
#150=CIRCLE('',#382,17.5);
#151=VERTEX_POINT('',#490);
#152=VERTEX_POINT('',#492);
#153=VERTEX_POINT('',#496);
#154=VERTEX_POINT('',#498);
#155=VERTEX_POINT('',#502);
#156=VERTEX_POINT('',#504);
#157=VERTEX_POINT('',#508);
#158=VERTEX_POINT('',#510);
#159=VERTEX_POINT('',#514);
#160=VERTEX_POINT('',#516);
#161=VERTEX_POINT('',#520);
#162=VERTEX_POINT('',#522);
#163=VERTEX_POINT('',#526);
#164=VERTEX_POINT('',#528);
#165=VERTEX_POINT('',#532);
#166=VERTEX_POINT('',#536);
#167=VERTEX_POINT('',#539);
#168=VERTEX_POINT('',#541);
#169=VERTEX_POINT('',#547);
#170=VERTEX_POINT('',#550);
#171=VERTEX_POINT('',#551);
#172=VERTEX_POINT('',#554);
#173=VERTEX_POINT('',#559);
#174=VERTEX_POINT('',#562);
#175=VERTEX_POINT('',#563);
#176=VERTEX_POINT('',#570);
#177=EDGE_CURVE('',#151,#151,#127,.T.);
#178=EDGE_CURVE('',#151,#152,#95,.T.);
#179=EDGE_CURVE('',#152,#152,#128,.T.);
#180=EDGE_CURVE('',#153,#153,#129,.T.);
#181=EDGE_CURVE('',#153,#154,#96,.T.);
#182=EDGE_CURVE('',#154,#154,#130,.T.);
#183=EDGE_CURVE('',#155,#155,#131,.T.);
#184=EDGE_CURVE('',#155,#156,#97,.T.);
#185=EDGE_CURVE('',#156,#156,#132,.T.);
#186=EDGE_CURVE('',#157,#157,#133,.T.);
#187=EDGE_CURVE('',#157,#158,#98,.T.);
#188=EDGE_CURVE('',#158,#158,#134,.T.);
#189=EDGE_CURVE('',#159,#159,#135,.T.);
#190=EDGE_CURVE('',#159,#160,#99,.T.);
#191=EDGE_CURVE('',#160,#160,#136,.T.);
#192=EDGE_CURVE('',#161,#161,#137,.T.);
#193=EDGE_CURVE('',#161,#162,#100,.T.);
#194=EDGE_CURVE('',#162,#162,#138,.T.);
#195=EDGE_CURVE('',#163,#163,#139,.T.);
#196=EDGE_CURVE('',#163,#164,#101,.T.);
#197=EDGE_CURVE('',#164,#164,#140,.T.);
#198=EDGE_CURVE('',#164,#165,#102,.T.);
#199=EDGE_CURVE('',#165,#165,#141,.T.);
#200=EDGE_CURVE('',#166,#166,#142,.T.);
#201=EDGE_CURVE('',#167,#167,#143,.T.);
#202=EDGE_CURVE('',#167,#168,#103,.T.);
#203=EDGE_CURVE('',#168,#168,#144,.T.);
#204=EDGE_CURVE('',#168,#166,#104,.T.);
#205=EDGE_CURVE('',#169,#169,#145,.T.);
#206=EDGE_CURVE('',#170,#171,#105,.T.);
#207=EDGE_CURVE('',#171,#170,#146,.T.);
#208=EDGE_CURVE('',#172,#172,#147,.T.);
#209=EDGE_CURVE('',#169,#172,#106,.T.);
#210=EDGE_CURVE('',#173,#173,#148,.T.);
#211=EDGE_CURVE('',#174,#175,#107,.T.);
#212=EDGE_CURVE('',#175,#171,#108,.T.);
#213=EDGE_CURVE('',#174,#170,#109,.T.);
#214=EDGE_CURVE('',#175,#174,#149,.T.);
#215=EDGE_CURVE('',#173,#176,#110,.T.);
#216=EDGE_CURVE('',#176,#176,#150,.T.);
#217=ORIENTED_EDGE('',*,*,#177,.F.);
#218=ORIENTED_EDGE('',*,*,#178,.T.);
#219=ORIENTED_EDGE('',*,*,#179,.F.);
#220=ORIENTED_EDGE('',*,*,#178,.F.);
#221=ORIENTED_EDGE('',*,*,#180,.F.);
#222=ORIENTED_EDGE('',*,*,#181,.T.);
#223=ORIENTED_EDGE('',*,*,#182,.F.);
#224=ORIENTED_EDGE('',*,*,#181,.F.);
#225=ORIENTED_EDGE('',*,*,#183,.F.);
#226=ORIENTED_EDGE('',*,*,#184,.T.);
#227=ORIENTED_EDGE('',*,*,#185,.F.);
#228=ORIENTED_EDGE('',*,*,#184,.F.);
#229=ORIENTED_EDGE('',*,*,#186,.F.);
#230=ORIENTED_EDGE('',*,*,#187,.T.);
#231=ORIENTED_EDGE('',*,*,#188,.F.);
#232=ORIENTED_EDGE('',*,*,#187,.F.);
#233=ORIENTED_EDGE('',*,*,#189,.F.);
#234=ORIENTED_EDGE('',*,*,#190,.T.);
#235=ORIENTED_EDGE('',*,*,#191,.F.);
#236=ORIENTED_EDGE('',*,*,#190,.F.);
#237=ORIENTED_EDGE('',*,*,#192,.F.);
#238=ORIENTED_EDGE('',*,*,#193,.T.);
#239=ORIENTED_EDGE('',*,*,#194,.F.);
#240=ORIENTED_EDGE('',*,*,#193,.F.);
#241=ORIENTED_EDGE('',*,*,#195,.T.);
#242=ORIENTED_EDGE('',*,*,#196,.T.);
#243=ORIENTED_EDGE('',*,*,#197,.T.);
#244=ORIENTED_EDGE('',*,*,#196,.F.);
#245=ORIENTED_EDGE('',*,*,#197,.F.);
#246=ORIENTED_EDGE('',*,*,#198,.T.);
#247=ORIENTED_EDGE('',*,*,#199,.T.);
#248=ORIENTED_EDGE('',*,*,#198,.F.);
#249=ORIENTED_EDGE('',*,*,#195,.F.);
#250=ORIENTED_EDGE('',*,*,#179,.T.);
#251=ORIENTED_EDGE('',*,*,#182,.T.);
#252=ORIENTED_EDGE('',*,*,#185,.T.);
#253=ORIENTED_EDGE('',*,*,#188,.T.);
#254=ORIENTED_EDGE('',*,*,#191,.T.);
#255=ORIENTED_EDGE('',*,*,#194,.T.);
#256=ORIENTED_EDGE('',*,*,#200,.T.);
#257=ORIENTED_EDGE('',*,*,#201,.T.);
#258=ORIENTED_EDGE('',*,*,#202,.T.);
#259=ORIENTED_EDGE('',*,*,#203,.T.);
#260=ORIENTED_EDGE('',*,*,#202,.F.);
#261=ORIENTED_EDGE('',*,*,#203,.F.);
#262=ORIENTED_EDGE('',*,*,#204,.T.);
#263=ORIENTED_EDGE('',*,*,#200,.F.);
#264=ORIENTED_EDGE('',*,*,#204,.F.);
#265=ORIENTED_EDGE('',*,*,#201,.F.);
#266=ORIENTED_EDGE('',*,*,#205,.T.);
#267=ORIENTED_EDGE('',*,*,#206,.T.);
#268=ORIENTED_EDGE('',*,*,#207,.T.);
#269=ORIENTED_EDGE('',*,*,#208,.F.);
#270=ORIENTED_EDGE('',*,*,#205,.F.);
#271=ORIENTED_EDGE('',*,*,#209,.T.);
#272=ORIENTED_EDGE('',*,*,#208,.T.);
#273=ORIENTED_EDGE('',*,*,#209,.F.);
#274=ORIENTED_EDGE('',*,*,#199,.F.);
#275=ORIENTED_EDGE('',*,*,#177,.T.);
#276=ORIENTED_EDGE('',*,*,#180,.T.);
#277=ORIENTED_EDGE('',*,*,#183,.T.);
#278=ORIENTED_EDGE('',*,*,#186,.T.);
#279=ORIENTED_EDGE('',*,*,#189,.T.);
#280=ORIENTED_EDGE('',*,*,#192,.T.);
#281=ORIENTED_EDGE('',*,*,#210,.T.);
#282=ORIENTED_EDGE('',*,*,#211,.T.);
#283=ORIENTED_EDGE('',*,*,#212,.T.);
#284=ORIENTED_EDGE('',*,*,#206,.F.);
#285=ORIENTED_EDGE('',*,*,#213,.F.);
#286=ORIENTED_EDGE('',*,*,#214,.T.);
#287=ORIENTED_EDGE('',*,*,#213,.T.);
#288=ORIENTED_EDGE('',*,*,#207,.F.);
#289=ORIENTED_EDGE('',*,*,#212,.F.);
#290=ORIENTED_EDGE('',*,*,#210,.F.);
#291=ORIENTED_EDGE('',*,*,#215,.T.);
#292=ORIENTED_EDGE('',*,*,#216,.T.);
#293=ORIENTED_EDGE('',*,*,#215,.F.);
#294=ORIENTED_EDGE('',*,*,#216,.F.);
#295=ORIENTED_EDGE('',*,*,#214,.F.);
#296=ORIENTED_EDGE('',*,*,#211,.F.);
#297=CYLINDRICAL_SURFACE('',#341,3.4);
#298=CYLINDRICAL_SURFACE('',#344,3.4);
#299=CYLINDRICAL_SURFACE('',#347,3.4);
#300=CYLINDRICAL_SURFACE('',#350,3.4);
#301=CYLINDRICAL_SURFACE('',#353,3.4);
#302=CYLINDRICAL_SURFACE('',#356,3.4);
#303=CYLINDRICAL_SURFACE('',#362,47.5);
#304=CYLINDRICAL_SURFACE('',#369,22.5);
#305=CYLINDRICAL_SURFACE('',#375,6.);
#306=CYLINDRICAL_SURFACE('',#379,12.5);
#307=CYLINDRICAL_SURFACE('',#381,17.5);
#308=ADVANCED_FACE('',(#40),#297,.F.);
#309=ADVANCED_FACE('',(#41),#298,.F.);
#310=ADVANCED_FACE('',(#42),#299,.F.);
#311=ADVANCED_FACE('',(#43),#300,.F.);
#312=ADVANCED_FACE('',(#44),#301,.F.);
#313=ADVANCED_FACE('',(#45),#302,.F.);
#314=ADVANCED_FACE('',(#46),#38,.T.);
#315=ADVANCED_FACE('',(#47),#303,.T.);
#316=ADVANCED_FACE('',(#48,#15,#16,#17,#18,#19,#20,#21),#32,.T.);
#317=ADVANCED_FACE('',(#49),#39,.T.);
#318=ADVANCED_FACE('',(#50),#304,.T.);
#319=ADVANCED_FACE('',(#51,#22),#33,.T.);
#320=ADVANCED_FACE('',(#52,#23),#34,.F.);
#321=ADVANCED_FACE('',(#53),#305,.F.);
#322=ADVANCED_FACE('',(#54,#24,#25,#26,#27,#28,#29,#30),#35,.F.);
#323=ADVANCED_FACE('',(#55),#36,.T.);
#324=ADVANCED_FACE('',(#56),#306,.F.);
#325=ADVANCED_FACE('',(#57),#307,.T.);
#326=ADVANCED_FACE('',(#58,#31),#37,.F.);
#327=CLOSED_SHELL('',(#308,#309,#310,#311,#312,#313,#314,#315,#316,#317,
#318,#319,#320,#321,#322,#323,#324,#325,#326));
#328=DERIVED_UNIT_ELEMENT(#330,1.);
#329=DERIVED_UNIT_ELEMENT(#579,-3.);
#330=(
MASS_UNIT()
NAMED_UNIT(*)
SI_UNIT(.KILO.,.GRAM.)
);
#331=DERIVED_UNIT((#328,#329));
#332=MEASURE_REPRESENTATION_ITEM('density measure',
POSITIVE_RATIO_MEASURE(7850.),#331);
#333=PROPERTY_DEFINITION_REPRESENTATION(#338,#335);
#334=PROPERTY_DEFINITION_REPRESENTATION(#339,#336);
#335=REPRESENTATION('material name',(#337),#576);
#336=REPRESENTATION('density',(#332),#576);
#337=DESCRIPTIVE_REPRESENTATION_ITEM('Acier','Acier');
#338=PROPERTY_DEFINITION('material property','material name',#586);
#339=PROPERTY_DEFINITION('material property','density of part',#586);
#340=AXIS2_PLACEMENT_3D('placement',#488,#384,#385);
#341=AXIS2_PLACEMENT_3D('',#489,#386,#387);
#342=AXIS2_PLACEMENT_3D('',#491,#388,#389);
#343=AXIS2_PLACEMENT_3D('',#494,#391,#392);
#344=AXIS2_PLACEMENT_3D('',#495,#393,#394);
#345=AXIS2_PLACEMENT_3D('',#497,#395,#396);
#346=AXIS2_PLACEMENT_3D('',#500,#398,#399);
#347=AXIS2_PLACEMENT_3D('',#501,#400,#401);
#348=AXIS2_PLACEMENT_3D('',#503,#402,#403);
#349=AXIS2_PLACEMENT_3D('',#506,#405,#406);
#350=AXIS2_PLACEMENT_3D('',#507,#407,#408);
#351=AXIS2_PLACEMENT_3D('',#509,#409,#410);
#352=AXIS2_PLACEMENT_3D('',#512,#412,#413);
#353=AXIS2_PLACEMENT_3D('',#513,#414,#415);
#354=AXIS2_PLACEMENT_3D('',#515,#416,#417);
#355=AXIS2_PLACEMENT_3D('',#518,#419,#420);
#356=AXIS2_PLACEMENT_3D('',#519,#421,#422);
#357=AXIS2_PLACEMENT_3D('',#521,#423,#424);
#358=AXIS2_PLACEMENT_3D('',#524,#426,#427);
#359=AXIS2_PLACEMENT_3D('',#525,#428,#429);
#360=AXIS2_PLACEMENT_3D('',#527,#430,#431);
#361=AXIS2_PLACEMENT_3D('',#530,#433,#434);
#362=AXIS2_PLACEMENT_3D('',#531,#435,#436);
#363=AXIS2_PLACEMENT_3D('',#534,#438,#439);
#364=AXIS2_PLACEMENT_3D('',#535,#440,#441);
#365=AXIS2_PLACEMENT_3D('',#537,#442,#443);
#366=AXIS2_PLACEMENT_3D('',#538,#444,#445);
#367=AXIS2_PLACEMENT_3D('',#540,#446,#447);
#368=AXIS2_PLACEMENT_3D('',#543,#449,#450);
#369=AXIS2_PLACEMENT_3D('',#544,#451,#452);
#370=AXIS2_PLACEMENT_3D('',#546,#454,#455);
#371=AXIS2_PLACEMENT_3D('',#548,#456,#457);
#372=AXIS2_PLACEMENT_3D('',#549,#458,#459);
#373=AXIS2_PLACEMENT_3D('',#553,#461,#462);
#374=AXIS2_PLACEMENT_3D('',#555,#463,#464);
#375=AXIS2_PLACEMENT_3D('',#556,#465,#466);
#376=AXIS2_PLACEMENT_3D('',#558,#468,#469);
#377=AXIS2_PLACEMENT_3D('',#560,#470,#471);
#378=AXIS2_PLACEMENT_3D('',#561,#472,#473);
#379=AXIS2_PLACEMENT_3D('',#567,#477,#478);
#380=AXIS2_PLACEMENT_3D('',#568,#479,#480);
#381=AXIS2_PLACEMENT_3D('',#569,#481,#482);
#382=AXIS2_PLACEMENT_3D('',#572,#484,#485);
#383=AXIS2_PLACEMENT_3D('',#573,#486,#487);
#384=DIRECTION('axis',(0.,0.,1.));
#385=DIRECTION('refdir',(1.,0.,0.));
#386=DIRECTION('center_axis',(0.,1.,0.));
#387=DIRECTION('ref_axis',(1.,0.,0.));
#388=DIRECTION('center_axis',(0.,1.,0.));
#389=DIRECTION('ref_axis',(1.,0.,0.));
#390=DIRECTION('',(0.,1.,0.));
#391=DIRECTION('center_axis',(0.,-1.,0.));
#392=DIRECTION('ref_axis',(1.,0.,0.));
#393=DIRECTION('center_axis',(0.,1.,0.));
#394=DIRECTION('ref_axis',(1.,0.,0.));
#395=DIRECTION('center_axis',(0.,1.,0.));
#396=DIRECTION('ref_axis',(1.,0.,0.));
#397=DIRECTION('',(0.,1.,0.));
#398=DIRECTION('center_axis',(0.,-1.,0.));
#399=DIRECTION('ref_axis',(1.,0.,0.));
#400=DIRECTION('center_axis',(0.,1.,0.));
#401=DIRECTION('ref_axis',(1.,0.,0.));
#402=DIRECTION('center_axis',(0.,1.,0.));
#403=DIRECTION('ref_axis',(1.,0.,0.));
#404=DIRECTION('',(0.,1.,0.));
#405=DIRECTION('center_axis',(0.,-1.,0.));
#406=DIRECTION('ref_axis',(1.,0.,0.));
#407=DIRECTION('center_axis',(0.,1.,0.));
#408=DIRECTION('ref_axis',(1.,0.,0.));
#409=DIRECTION('center_axis',(0.,1.,0.));
#410=DIRECTION('ref_axis',(1.,0.,0.));
#411=DIRECTION('',(0.,1.,0.));
#412=DIRECTION('center_axis',(0.,-1.,0.));
#413=DIRECTION('ref_axis',(1.,0.,0.));
#414=DIRECTION('center_axis',(0.,1.,0.));
#415=DIRECTION('ref_axis',(1.,0.,0.));
#416=DIRECTION('center_axis',(0.,1.,0.));
#417=DIRECTION('ref_axis',(1.,0.,0.));
#418=DIRECTION('',(0.,1.,0.));
#419=DIRECTION('center_axis',(0.,-1.,0.));
#420=DIRECTION('ref_axis',(1.,0.,0.));
#421=DIRECTION('center_axis',(0.,1.,0.));
#422=DIRECTION('ref_axis',(1.,0.,0.));
#423=DIRECTION('center_axis',(0.,1.,0.));
#424=DIRECTION('ref_axis',(1.,0.,0.));
#425=DIRECTION('',(0.,1.,0.));
#426=DIRECTION('center_axis',(0.,-1.,0.));
#427=DIRECTION('ref_axis',(1.,0.,0.));
#428=DIRECTION('center_axis',(0.,-1.,0.));
#429=DIRECTION('ref_axis',(-1.,0.,0.));
#430=DIRECTION('center_axis',(0.,-1.,0.));
#431=DIRECTION('ref_axis',(-1.,0.,0.));
#432=DIRECTION('',(0.707106781186548,-0.707106781186547,-8.65956056235494E-17));
#433=DIRECTION('center_axis',(0.,1.,0.));
#434=DIRECTION('ref_axis',(-1.,0.,0.));
#435=DIRECTION('center_axis',(0.,1.,0.));
#436=DIRECTION('ref_axis',(-1.,0.,0.));
#437=DIRECTION('',(0.,-1.,0.));
#438=DIRECTION('center_axis',(0.,1.,0.));
#439=DIRECTION('ref_axis',(-1.,0.,0.));
#440=DIRECTION('center_axis',(0.,1.,0.));
#441=DIRECTION('ref_axis',(-1.,0.,0.));
#442=DIRECTION('center_axis',(0.,-1.,0.));
#443=DIRECTION('ref_axis',(-1.,0.,0.));
#444=DIRECTION('center_axis',(0.,-1.,0.));
#445=DIRECTION('ref_axis',(-1.,0.,0.));
#446=DIRECTION('center_axis',(0.,-1.,0.));
#447=DIRECTION('ref_axis',(-1.,0.,0.));
#448=DIRECTION('',(0.707106781186548,-0.707106781186548,-8.65956056235493E-17));
#449=DIRECTION('center_axis',(0.,1.,0.));
#450=DIRECTION('ref_axis',(-1.,0.,0.));
#451=DIRECTION('center_axis',(0.,1.,0.));
#452=DIRECTION('ref_axis',(-1.,0.,0.));
#453=DIRECTION('',(0.,-1.,0.));
#454=DIRECTION('center_axis',(0.,1.,0.));
#455=DIRECTION('ref_axis',(-1.,0.,0.));
#456=DIRECTION('center_axis',(0.,-1.,0.));
#457=DIRECTION('ref_axis',(-1.,0.,0.));
#458=DIRECTION('center_axis',(0.,1.,0.));
#459=DIRECTION('ref_axis',(-1.,0.,0.));
#460=DIRECTION('',(-2.22044604925031E-16,0.,1.));
#461=DIRECTION('center_axis',(0.,-1.,0.));
#462=DIRECTION('ref_axis',(0.8,0.,-0.6));
#463=DIRECTION('center_axis',(0.,-1.,0.));
#464=DIRECTION('ref_axis',(-1.,0.,0.));
#465=DIRECTION('center_axis',(0.,1.,0.));
#466=DIRECTION('ref_axis',(-1.,0.,0.));
#467=DIRECTION('',(0.,-1.,0.));
#468=DIRECTION('center_axis',(0.,1.,0.));
#469=DIRECTION('ref_axis',(-1.,0.,0.));
#470=DIRECTION('center_axis',(0.,1.,0.));
#471=DIRECTION('ref_axis',(1.,0.,0.));
#472=DIRECTION('center_axis',(-1.,0.,0.));
#473=DIRECTION('ref_axis',(0.,0.,1.));
#474=DIRECTION('',(0.,0.,1.));
#475=DIRECTION('',(0.,1.,0.));
#476=DIRECTION('',(0.,1.,0.));
#477=DIRECTION('center_axis',(0.,1.,0.));
#478=DIRECTION('ref_axis',(-1.,0.,8.88178419700125E-17));
#479=DIRECTION('center_axis',(0.,-1.,0.));
#480=DIRECTION('ref_axis',(0.8,0.,-0.6));
#481=DIRECTION('center_axis',(0.,1.,0.));
#482=DIRECTION('ref_axis',(1.,0.,0.));
#483=DIRECTION('',(0.,-1.,0.));
#484=DIRECTION('center_axis',(0.,1.,0.));
#485=DIRECTION('ref_axis',(1.,0.,0.));
#486=DIRECTION('center_axis',(0.,1.,0.));
#487=DIRECTION('ref_axis',(1.,0.,0.));
#488=CARTESIAN_POINT('',(0.,0.,0.));
#489=CARTESIAN_POINT('Origin',(-1.82088838793595E-15,12.,-33.));
#490=CARTESIAN_POINT('',(-3.4,12.,-33.));
#491=CARTESIAN_POINT('Origin',(-1.82088838793595E-15,12.,-33.));
#492=CARTESIAN_POINT('',(-3.4,22.,-33.));
#493=CARTESIAN_POINT('',(-3.4,12.,-33.));
#494=CARTESIAN_POINT('Origin',(-1.82088838793595E-15,22.,-33.));
#495=CARTESIAN_POINT('Origin',(0.,12.,33.));
#496=CARTESIAN_POINT('',(-3.4,12.,33.));
#497=CARTESIAN_POINT('Origin',(0.,12.,33.));
#498=CARTESIAN_POINT('',(-3.4,22.,33.));
#499=CARTESIAN_POINT('',(-3.4,12.,33.));
#500=CARTESIAN_POINT('Origin',(0.,22.,33.));
#501=CARTESIAN_POINT('Origin',(-28.5788383248865,12.,-16.5));
#502=CARTESIAN_POINT('',(-31.9788383248865,12.,-16.5));
#503=CARTESIAN_POINT('Origin',(-28.5788383248865,12.,-16.5));
#504=CARTESIAN_POINT('',(-31.9788383248865,22.,-16.5));
#505=CARTESIAN_POINT('',(-31.9788383248865,12.,-16.5));
#506=CARTESIAN_POINT('Origin',(-28.5788383248865,22.,-16.5));
#507=CARTESIAN_POINT('Origin',(28.5788383248865,12.,-16.5));
#508=CARTESIAN_POINT('',(25.1788383248865,12.,-16.5));
#509=CARTESIAN_POINT('Origin',(28.5788383248865,12.,-16.5));
#510=CARTESIAN_POINT('',(25.1788383248865,22.,-16.5));
#511=CARTESIAN_POINT('',(25.1788383248865,12.,-16.5));
#512=CARTESIAN_POINT('Origin',(28.5788383248865,22.,-16.5));
#513=CARTESIAN_POINT('Origin',(28.5788383248865,12.,16.5));
#514=CARTESIAN_POINT('',(25.1788383248865,12.,16.5));
#515=CARTESIAN_POINT('Origin',(28.5788383248865,12.,16.5));
#516=CARTESIAN_POINT('',(25.1788383248865,22.,16.5));
#517=CARTESIAN_POINT('',(25.1788383248865,12.,16.5));
#518=CARTESIAN_POINT('Origin',(28.5788383248865,22.,16.5));
#519=CARTESIAN_POINT('Origin',(-28.5788383248865,12.,16.5));
#520=CARTESIAN_POINT('',(-31.9788383248865,12.,16.5));
#521=CARTESIAN_POINT('Origin',(-28.5788383248865,12.,16.5));
#522=CARTESIAN_POINT('',(-31.9788383248865,22.,16.5));
#523=CARTESIAN_POINT('',(-31.9788383248865,12.,16.5));
#524=CARTESIAN_POINT('Origin',(-28.5788383248865,22.,16.5));
#525=CARTESIAN_POINT('Origin',(1.11022302462516E-15,20.,-3.88578058618805E-15));
#526=CARTESIAN_POINT('',(43.5,22.,1.44143299010294E-15));
#527=CARTESIAN_POINT('Origin',(1.11022302462516E-15,22.,-3.88578058618805E-15));
#528=CARTESIAN_POINT('',(47.5,18.,-9.70285288213798E-15));
#529=CARTESIAN_POINT('',(45.5,20.,-9.4579235223085E-15));
#530=CARTESIAN_POINT('Origin',(1.11022302462516E-15,18.,-3.88578058618805E-15));
#531=CARTESIAN_POINT('Origin',(1.11022302462516E-15,12.,-3.88578058618805E-15));
#532=CARTESIAN_POINT('',(47.5,12.,-9.70285288213798E-15));
#533=CARTESIAN_POINT('',(47.5,12.,-9.70285288213798E-15));
#534=CARTESIAN_POINT('Origin',(1.11022302462516E-15,12.,-3.88578058618805E-15));
#535=CARTESIAN_POINT('Origin',(0.,22.,0.));
#536=CARTESIAN_POINT('',(22.5,22.,-7.75145890889475E-15));
#537=CARTESIAN_POINT('Origin',(2.77555756156289E-16,22.,-4.9960036108132E-15));
#538=CARTESIAN_POINT('Origin',(2.77555756156289E-16,28.,-4.9960036108132E-15));
#539=CARTESIAN_POINT('',(18.5,30.,-2.7304070323906E-15));
#540=CARTESIAN_POINT('Origin',(2.77555756156289E-16,30.,-4.9960036108132E-15));
#541=CARTESIAN_POINT('',(22.5,26.,-7.75145890889475E-15));
#542=CARTESIAN_POINT('',(20.5,28.,-7.50652954906528E-15));
#543=CARTESIAN_POINT('Origin',(2.77555756156289E-16,26.,-4.9960036108132E-15));
#544=CARTESIAN_POINT('Origin',(2.77555756156289E-16,22.,-4.9960036108132E-15));
#545=CARTESIAN_POINT('',(22.5,22.,-7.75145890889475E-15));
#546=CARTESIAN_POINT('Origin',(0.,30.,-4.44089209850063E-15));
#547=CARTESIAN_POINT('',(6.,30.,-7.34788079488412E-16));
#548=CARTESIAN_POINT('Origin',(0.,30.,0.));
#549=CARTESIAN_POINT('Origin',(0.,22.,-4.44089209850063E-15));
#550=CARTESIAN_POINT('',(10.,22.,-7.5));
#551=CARTESIAN_POINT('',(10.,22.,7.5));
#552=CARTESIAN_POINT('',(10.,22.,-7.5));
#553=CARTESIAN_POINT('Origin',(1.11022302462516E-15,22.,-3.88578058618805E-15));
#554=CARTESIAN_POINT('',(6.,22.,-7.34788079488412E-16));
#555=CARTESIAN_POINT('Origin',(0.,22.,0.));
#556=CARTESIAN_POINT('Origin',(0.,22.,0.));
#557=CARTESIAN_POINT('',(6.,22.,-7.34788079488412E-16));
#558=CARTESIAN_POINT('Origin',(0.,12.,0.));
#559=CARTESIAN_POINT('',(-17.5,12.,2.22044604925031E-15));
#560=CARTESIAN_POINT('Origin',(0.,12.,0.));
#561=CARTESIAN_POINT('Origin',(10.,0.,-7.5));
#562=CARTESIAN_POINT('',(10.,0.,-7.5));
#563=CARTESIAN_POINT('',(10.,0.,7.5));
#564=CARTESIAN_POINT('',(10.,0.,-7.5));
#565=CARTESIAN_POINT('',(10.,0.,7.5));
#566=CARTESIAN_POINT('',(10.,0.,-7.5));
#567=CARTESIAN_POINT('Origin',(0.,0.,0.));
#568=CARTESIAN_POINT('Origin',(0.,0.,0.));
#569=CARTESIAN_POINT('Origin',(0.,0.,0.));
#570=CARTESIAN_POINT('',(-17.5,0.,2.14313189850787E-15));
#571=CARTESIAN_POINT('',(-17.5,0.,2.14313189850787E-15));
#572=CARTESIAN_POINT('Origin',(0.,0.,0.));
#573=CARTESIAN_POINT('Origin',(0.,0.,0.));
#574=UNCERTAINTY_MEASURE_WITH_UNIT(LENGTH_MEASURE(0.01),#578,
'DISTANCE_ACCURACY_VALUE',
'Maximum model space distance between geometric entities at asserted c
onnectivities');
#575=UNCERTAINTY_MEASURE_WITH_UNIT(LENGTH_MEASURE(0.01),#578,
'DISTANCE_ACCURACY_VALUE',
'Maximum model space distance between geometric entities at asserted c
onnectivities');
#576=(
GEOMETRIC_REPRESENTATION_CONTEXT(3)
GLOBAL_UNCERTAINTY_ASSIGNED_CONTEXT((#574))
GLOBAL_UNIT_ASSIGNED_CONTEXT((#578,#580,#581))
REPRESENTATION_CONTEXT('','3D')
);
#577=(
GEOMETRIC_REPRESENTATION_CONTEXT(3)
GLOBAL_UNCERTAINTY_ASSIGNED_CONTEXT((#575))
GLOBAL_UNIT_ASSIGNED_CONTEXT((#578,#580,#581))
REPRESENTATION_CONTEXT('','3D')
);
#578=(
LENGTH_UNIT()
NAMED_UNIT(*)
SI_UNIT(.MILLI.,.METRE.)
);
#579=(
LENGTH_UNIT()
NAMED_UNIT(*)
SI_UNIT($,.METRE.)
);
#580=(
NAMED_UNIT(*)
PLANE_ANGLE_UNIT()
SI_UNIT($,.RADIAN.)
);
#581=(
NAMED_UNIT(*)
SI_UNIT($,.STERADIAN.)
SOLID_ANGLE_UNIT()
);
#582=SHAPE_DEFINITION_REPRESENTATION(#583,#584);
#583=PRODUCT_DEFINITION_SHAPE('',$,#586);
#584=SHAPE_REPRESENTATION('',(#340),#576);
#585=PRODUCT_DEFINITION_CONTEXT('part definition',#590,'design');
#586=PRODUCT_DEFINITION('usinage pretailleuse',
'usinage pretailleuse v1',#587,#585);
#587=PRODUCT_DEFINITION_FORMATION('',$,#592);
#588=PRODUCT_RELATED_PRODUCT_CATEGORY('usinage pretailleuse v1',
'usinage pretailleuse v1',(#592));
#589=APPLICATION_PROTOCOL_DEFINITION('international standard',
'automotive_design',2009,#590);
#590=APPLICATION_CONTEXT(
'Core Data for Automotive Mechanical Design Process');
#591=PRODUCT_CONTEXT('part definition',#590,'mechanical');
#592=PRODUCT('usinage pretailleuse','usinage pretailleuse v1',$,(#591));
#593=PRESENTATION_STYLE_ASSIGNMENT((#594));
#594=SURFACE_STYLE_USAGE(.BOTH.,#595);
#595=SURFACE_SIDE_STYLE('',(#596));
#596=SURFACE_STYLE_FILL_AREA(#597);
#597=FILL_AREA_STYLE('Acier - Satin\X\E9',(#598));
#598=FILL_AREA_STYLE_COLOUR('Acier - Satin\X\E9',#599);
#599=COLOUR_RGB('Acier - Satin\X\E9',0.627450980392157,0.627450980392157,
0.627450980392157);
ENDSEC;
END-ISO-10303-21;
