ISO-10303-21;
HEADER;
/* Generated by software containing ST-Developer
 * from STEP Tools, Inc. (www.steptools.com) 
 */

FILE_DESCRIPTION(
/* description */ (''),
/* implementation_level */ '2;1');

FILE_NAME(
/* name */ 'C:/Users/HippoProject/Downloads/Tete_outil_pivot.step',
/* time_stamp */ '2023-01-20T18:20:25+01:00',
/* author */ (''),
/* organization */ (''),
/* preprocessor_version */ 'ST-DEVELOPER v18.1',
/* originating_system */ 'Autodesk Translation Framework v10.13.0.1454',

/* authorisation */ '');

FILE_SCHEMA (('AUTOMOTIVE_DESIGN { 1 0 10303 214 3 1 1 }'));
ENDSEC;

DATA;
#10=MECHANICAL_DESIGN_GEOMETRIC_PRESENTATION_REPRESENTATION('',(#13),#477);
#11=SHAPE_REPRESENTATION_RELATIONSHIP('SRR','None',#484,#12);
#12=ADVANCED_BREP_SHAPE_REPRESENTATION('',(#14),#476);
#13=STYLED_ITEM('',(#493),#14);
#14=MANIFOLD_SOLID_BREP('Corps1',#285);
#15=FACE_BOUND('',#52,.T.);
#16=FACE_BOUND('',#56,.T.);
#17=FACE_BOUND('',#61,.T.);
#18=FACE_BOUND('',#64,.T.);
#19=FACE_BOUND('',#65,.T.);
#20=FACE_BOUND('',#67,.T.);
#21=FACE_BOUND('',#69,.T.);
#22=PLANE('',#308);
#23=PLANE('',#312);
#24=PLANE('',#313);
#25=PLANE('',#314);
#26=PLANE('',#315);
#27=PLANE('',#316);
#28=PLANE('',#317);
#29=PLANE('',#318);
#30=PLANE('',#319);
#31=PLANE('',#320);
#32=PLANE('',#321);
#33=FACE_OUTER_BOUND('',#48,.T.);
#34=FACE_OUTER_BOUND('',#49,.T.);
#35=FACE_OUTER_BOUND('',#50,.T.);
#36=FACE_OUTER_BOUND('',#51,.T.);
#37=FACE_OUTER_BOUND('',#53,.T.);
#38=FACE_OUTER_BOUND('',#54,.T.);
#39=FACE_OUTER_BOUND('',#55,.T.);
#40=FACE_OUTER_BOUND('',#57,.T.);
#41=FACE_OUTER_BOUND('',#58,.T.);
#42=FACE_OUTER_BOUND('',#59,.T.);
#43=FACE_OUTER_BOUND('',#60,.T.);
#44=FACE_OUTER_BOUND('',#62,.T.);
#45=FACE_OUTER_BOUND('',#63,.T.);
#46=FACE_OUTER_BOUND('',#66,.T.);
#47=FACE_OUTER_BOUND('',#68,.T.);
#48=EDGE_LOOP('',(#194,#195,#196,#197));
#49=EDGE_LOOP('',(#198,#199,#200,#201));
#50=EDGE_LOOP('',(#202,#203,#204,#205));
#51=EDGE_LOOP('',(#206));
#52=EDGE_LOOP('',(#207));
#53=EDGE_LOOP('',(#208,#209,#210,#211));
#54=EDGE_LOOP('',(#212,#213,#214,#215));
#55=EDGE_LOOP('',(#216,#217,#218,#219));
#56=EDGE_LOOP('',(#220));
#57=EDGE_LOOP('',(#221,#222,#223,#224));
#58=EDGE_LOOP('',(#225,#226,#227,#228));
#59=EDGE_LOOP('',(#229,#230,#231,#232));
#60=EDGE_LOOP('',(#233,#234,#235,#236));
#61=EDGE_LOOP('',(#237));
#62=EDGE_LOOP('',(#238,#239,#240,#241));
#63=EDGE_LOOP('',(#242,#243,#244,#245));
#64=EDGE_LOOP('',(#246));
#65=EDGE_LOOP('',(#247));
#66=EDGE_LOOP('',(#248,#249,#250,#251,#252,#253,#254,#255));
#67=EDGE_LOOP('',(#256));
#68=EDGE_LOOP('',(#257,#258,#259,#260,#261,#262,#263,#264));
#69=EDGE_LOOP('',(#265));
#70=LINE('',#403,#98);
#71=LINE('',#409,#99);
#72=LINE('',#415,#100);
#73=LINE('',#422,#101);
#74=LINE('',#427,#102);
#75=LINE('',#429,#103);
#76=LINE('',#431,#104);
#77=LINE('',#432,#105);
#78=LINE('',#435,#106);
#79=LINE('',#437,#107);
#80=LINE('',#438,#108);
#81=LINE('',#441,#109);
#82=LINE('',#443,#110);
#83=LINE('',#444,#111);
#84=LINE('',#447,#112);
#85=LINE('',#449,#113);
#86=LINE('',#450,#114);
#87=LINE('',#453,#115);
#88=LINE('',#455,#116);
#89=LINE('',#456,#117);
#90=LINE('',#459,#118);
#91=LINE('',#461,#119);
#92=LINE('',#462,#120);
#93=LINE('',#465,#121);
#94=LINE('',#467,#122);
#95=LINE('',#468,#123);
#96=LINE('',#470,#124);
#97=LINE('',#471,#125);
#98=VECTOR('',#328,6.);
#99=VECTOR('',#335,6.);
#100=VECTOR('',#342,10.5);
#101=VECTOR('',#351,9.5);
#102=VECTOR('',#356,10.);
#103=VECTOR('',#357,10.);
#104=VECTOR('',#358,10.);
#105=VECTOR('',#359,10.);
#106=VECTOR('',#362,10.);
#107=VECTOR('',#363,10.);
#108=VECTOR('',#364,10.);
#109=VECTOR('',#367,10.);
#110=VECTOR('',#368,10.);
#111=VECTOR('',#369,10.);
#112=VECTOR('',#372,10.);
#113=VECTOR('',#373,10.);
#114=VECTOR('',#374,10.);
#115=VECTOR('',#377,10.);
#116=VECTOR('',#378,10.);
#117=VECTOR('',#379,10.);
#118=VECTOR('',#382,10.);
#119=VECTOR('',#383,10.);
#120=VECTOR('',#384,10.);
#121=VECTOR('',#387,10.);
#122=VECTOR('',#388,10.);
#123=VECTOR('',#389,10.);
#124=VECTOR('',#392,10.);
#125=VECTOR('',#393,10.);
#126=CIRCLE('',#300,6.);
#127=CIRCLE('',#301,6.);
#128=CIRCLE('',#303,6.);
#129=CIRCLE('',#304,6.);
#130=CIRCLE('',#306,10.5);
#131=CIRCLE('',#307,10.5);
#132=CIRCLE('',#309,9.5);
#133=CIRCLE('',#311,9.5);
#134=VERTEX_POINT('',#400);
#135=VERTEX_POINT('',#402);
#136=VERTEX_POINT('',#406);
#137=VERTEX_POINT('',#408);
#138=VERTEX_POINT('',#412);
#139=VERTEX_POINT('',#414);
#140=VERTEX_POINT('',#418);
#141=VERTEX_POINT('',#421);
#142=VERTEX_POINT('',#425);
#143=VERTEX_POINT('',#426);
#144=VERTEX_POINT('',#428);
#145=VERTEX_POINT('',#430);
#146=VERTEX_POINT('',#434);
#147=VERTEX_POINT('',#436);
#148=VERTEX_POINT('',#440);
#149=VERTEX_POINT('',#442);
#150=VERTEX_POINT('',#446);
#151=VERTEX_POINT('',#448);
#152=VERTEX_POINT('',#452);
#153=VERTEX_POINT('',#454);
#154=VERTEX_POINT('',#458);
#155=VERTEX_POINT('',#460);
#156=VERTEX_POINT('',#464);
#157=VERTEX_POINT('',#466);
#158=EDGE_CURVE('',#134,#134,#126,.T.);
#159=EDGE_CURVE('',#134,#135,#70,.T.);
#160=EDGE_CURVE('',#135,#135,#127,.T.);
#161=EDGE_CURVE('',#136,#136,#128,.T.);
#162=EDGE_CURVE('',#136,#137,#71,.T.);
#163=EDGE_CURVE('',#137,#137,#129,.T.);
#164=EDGE_CURVE('',#138,#138,#130,.T.);
#165=EDGE_CURVE('',#138,#139,#72,.T.);
#166=EDGE_CURVE('',#139,#139,#131,.T.);
#167=EDGE_CURVE('',#140,#140,#132,.T.);
#168=EDGE_CURVE('',#140,#141,#73,.T.);
#169=EDGE_CURVE('',#141,#141,#133,.T.);
#170=EDGE_CURVE('',#142,#143,#74,.T.);
#171=EDGE_CURVE('',#142,#144,#75,.T.);
#172=EDGE_CURVE('',#145,#144,#76,.T.);
#173=EDGE_CURVE('',#143,#145,#77,.T.);
#174=EDGE_CURVE('',#143,#146,#78,.T.);
#175=EDGE_CURVE('',#147,#145,#79,.T.);
#176=EDGE_CURVE('',#146,#147,#80,.T.);
#177=EDGE_CURVE('',#146,#148,#81,.T.);
#178=EDGE_CURVE('',#149,#147,#82,.T.);
#179=EDGE_CURVE('',#148,#149,#83,.T.);
#180=EDGE_CURVE('',#148,#150,#84,.T.);
#181=EDGE_CURVE('',#151,#149,#85,.T.);
#182=EDGE_CURVE('',#150,#151,#86,.T.);
#183=EDGE_CURVE('',#150,#152,#87,.T.);
#184=EDGE_CURVE('',#153,#151,#88,.T.);
#185=EDGE_CURVE('',#152,#153,#89,.T.);
#186=EDGE_CURVE('',#152,#154,#90,.T.);
#187=EDGE_CURVE('',#155,#153,#91,.T.);
#188=EDGE_CURVE('',#154,#155,#92,.T.);
#189=EDGE_CURVE('',#154,#156,#93,.T.);
#190=EDGE_CURVE('',#157,#155,#94,.T.);
#191=EDGE_CURVE('',#156,#157,#95,.T.);
#192=EDGE_CURVE('',#142,#156,#96,.T.);
#193=EDGE_CURVE('',#144,#157,#97,.T.);
#194=ORIENTED_EDGE('',*,*,#158,.F.);
#195=ORIENTED_EDGE('',*,*,#159,.T.);
#196=ORIENTED_EDGE('',*,*,#160,.F.);
#197=ORIENTED_EDGE('',*,*,#159,.F.);
#198=ORIENTED_EDGE('',*,*,#161,.F.);
#199=ORIENTED_EDGE('',*,*,#162,.T.);
#200=ORIENTED_EDGE('',*,*,#163,.F.);
#201=ORIENTED_EDGE('',*,*,#162,.F.);
#202=ORIENTED_EDGE('',*,*,#164,.F.);
#203=ORIENTED_EDGE('',*,*,#165,.T.);
#204=ORIENTED_EDGE('',*,*,#166,.F.);
#205=ORIENTED_EDGE('',*,*,#165,.F.);
#206=ORIENTED_EDGE('',*,*,#164,.T.);
#207=ORIENTED_EDGE('',*,*,#167,.T.);
#208=ORIENTED_EDGE('',*,*,#167,.F.);
#209=ORIENTED_EDGE('',*,*,#168,.T.);
#210=ORIENTED_EDGE('',*,*,#169,.T.);
#211=ORIENTED_EDGE('',*,*,#168,.F.);
#212=ORIENTED_EDGE('',*,*,#170,.F.);
#213=ORIENTED_EDGE('',*,*,#171,.T.);
#214=ORIENTED_EDGE('',*,*,#172,.F.);
#215=ORIENTED_EDGE('',*,*,#173,.F.);
#216=ORIENTED_EDGE('',*,*,#174,.F.);
#217=ORIENTED_EDGE('',*,*,#173,.T.);
#218=ORIENTED_EDGE('',*,*,#175,.F.);
#219=ORIENTED_EDGE('',*,*,#176,.F.);
#220=ORIENTED_EDGE('',*,*,#158,.T.);
#221=ORIENTED_EDGE('',*,*,#177,.F.);
#222=ORIENTED_EDGE('',*,*,#176,.T.);
#223=ORIENTED_EDGE('',*,*,#178,.F.);
#224=ORIENTED_EDGE('',*,*,#179,.F.);
#225=ORIENTED_EDGE('',*,*,#180,.F.);
#226=ORIENTED_EDGE('',*,*,#179,.T.);
#227=ORIENTED_EDGE('',*,*,#181,.F.);
#228=ORIENTED_EDGE('',*,*,#182,.F.);
#229=ORIENTED_EDGE('',*,*,#183,.F.);
#230=ORIENTED_EDGE('',*,*,#182,.T.);
#231=ORIENTED_EDGE('',*,*,#184,.F.);
#232=ORIENTED_EDGE('',*,*,#185,.F.);
#233=ORIENTED_EDGE('',*,*,#186,.F.);
#234=ORIENTED_EDGE('',*,*,#185,.T.);
#235=ORIENTED_EDGE('',*,*,#187,.F.);
#236=ORIENTED_EDGE('',*,*,#188,.F.);
#237=ORIENTED_EDGE('',*,*,#161,.T.);
#238=ORIENTED_EDGE('',*,*,#189,.F.);
#239=ORIENTED_EDGE('',*,*,#188,.T.);
#240=ORIENTED_EDGE('',*,*,#190,.F.);
#241=ORIENTED_EDGE('',*,*,#191,.F.);
#242=ORIENTED_EDGE('',*,*,#192,.T.);
#243=ORIENTED_EDGE('',*,*,#191,.T.);
#244=ORIENTED_EDGE('',*,*,#193,.F.);
#245=ORIENTED_EDGE('',*,*,#171,.F.);
#246=ORIENTED_EDGE('',*,*,#160,.T.);
#247=ORIENTED_EDGE('',*,*,#163,.T.);
#248=ORIENTED_EDGE('',*,*,#193,.T.);
#249=ORIENTED_EDGE('',*,*,#190,.T.);
#250=ORIENTED_EDGE('',*,*,#187,.T.);
#251=ORIENTED_EDGE('',*,*,#184,.T.);
#252=ORIENTED_EDGE('',*,*,#181,.T.);
#253=ORIENTED_EDGE('',*,*,#178,.T.);
#254=ORIENTED_EDGE('',*,*,#175,.T.);
#255=ORIENTED_EDGE('',*,*,#172,.T.);
#256=ORIENTED_EDGE('',*,*,#166,.T.);
#257=ORIENTED_EDGE('',*,*,#192,.F.);
#258=ORIENTED_EDGE('',*,*,#170,.T.);
#259=ORIENTED_EDGE('',*,*,#174,.T.);
#260=ORIENTED_EDGE('',*,*,#177,.T.);
#261=ORIENTED_EDGE('',*,*,#180,.T.);
#262=ORIENTED_EDGE('',*,*,#183,.T.);
#263=ORIENTED_EDGE('',*,*,#186,.T.);
#264=ORIENTED_EDGE('',*,*,#189,.T.);
#265=ORIENTED_EDGE('',*,*,#169,.F.);
#266=CYLINDRICAL_SURFACE('',#299,6.);
#267=CYLINDRICAL_SURFACE('',#302,6.);
#268=CYLINDRICAL_SURFACE('',#305,10.5);
#269=CYLINDRICAL_SURFACE('',#310,9.5);
#270=ADVANCED_FACE('',(#33),#266,.F.);
#271=ADVANCED_FACE('',(#34),#267,.F.);
#272=ADVANCED_FACE('',(#35),#268,.T.);
#273=ADVANCED_FACE('',(#36,#15),#22,.T.);
#274=ADVANCED_FACE('',(#37),#269,.F.);
#275=ADVANCED_FACE('',(#38),#23,.T.);
#276=ADVANCED_FACE('',(#39,#16),#24,.T.);
#277=ADVANCED_FACE('',(#40),#25,.T.);
#278=ADVANCED_FACE('',(#41),#26,.T.);
#279=ADVANCED_FACE('',(#42),#27,.T.);
#280=ADVANCED_FACE('',(#43,#17),#28,.T.);
#281=ADVANCED_FACE('',(#44),#29,.T.);
#282=ADVANCED_FACE('',(#45,#18,#19),#30,.T.);
#283=ADVANCED_FACE('',(#46,#20),#31,.T.);
#284=ADVANCED_FACE('',(#47,#21),#32,.F.);
#285=CLOSED_SHELL('',(#270,#271,#272,#273,#274,#275,#276,#277,#278,#279,
#280,#281,#282,#283,#284));
#286=DERIVED_UNIT_ELEMENT(#288,1.);
#287=DERIVED_UNIT_ELEMENT(#479,-3.);
#288=(
MASS_UNIT()
NAMED_UNIT(*)
SI_UNIT(.KILO.,.GRAM.)
);
#289=DERIVED_UNIT((#286,#287));
#290=MEASURE_REPRESENTATION_ITEM('density measure',
POSITIVE_RATIO_MEASURE(7850.),#289);
#291=PROPERTY_DEFINITION_REPRESENTATION(#296,#293);
#292=PROPERTY_DEFINITION_REPRESENTATION(#297,#294);
#293=REPRESENTATION('material name',(#295),#476);
#294=REPRESENTATION('density',(#290),#476);
#295=DESCRIPTIVE_REPRESENTATION_ITEM('Acier','Acier');
#296=PROPERTY_DEFINITION('material property','material name',#486);
#297=PROPERTY_DEFINITION('material property','density of part',#486);
#298=AXIS2_PLACEMENT_3D('placement',#398,#322,#323);
#299=AXIS2_PLACEMENT_3D('',#399,#324,#325);
#300=AXIS2_PLACEMENT_3D('',#401,#326,#327);
#301=AXIS2_PLACEMENT_3D('',#404,#329,#330);
#302=AXIS2_PLACEMENT_3D('',#405,#331,#332);
#303=AXIS2_PLACEMENT_3D('',#407,#333,#334);
#304=AXIS2_PLACEMENT_3D('',#410,#336,#337);
#305=AXIS2_PLACEMENT_3D('',#411,#338,#339);
#306=AXIS2_PLACEMENT_3D('',#413,#340,#341);
#307=AXIS2_PLACEMENT_3D('',#416,#343,#344);
#308=AXIS2_PLACEMENT_3D('',#417,#345,#346);
#309=AXIS2_PLACEMENT_3D('',#419,#347,#348);
#310=AXIS2_PLACEMENT_3D('',#420,#349,#350);
#311=AXIS2_PLACEMENT_3D('',#423,#352,#353);
#312=AXIS2_PLACEMENT_3D('',#424,#354,#355);
#313=AXIS2_PLACEMENT_3D('',#433,#360,#361);
#314=AXIS2_PLACEMENT_3D('',#439,#365,#366);
#315=AXIS2_PLACEMENT_3D('',#445,#370,#371);
#316=AXIS2_PLACEMENT_3D('',#451,#375,#376);
#317=AXIS2_PLACEMENT_3D('',#457,#380,#381);
#318=AXIS2_PLACEMENT_3D('',#463,#385,#386);
#319=AXIS2_PLACEMENT_3D('',#469,#390,#391);
#320=AXIS2_PLACEMENT_3D('',#472,#394,#395);
#321=AXIS2_PLACEMENT_3D('',#473,#396,#397);
#322=DIRECTION('axis',(0.,0.,1.));
#323=DIRECTION('refdir',(1.,0.,0.));
#324=DIRECTION('center_axis',(-5.9211894646675E-16,0.,-1.));
#325=DIRECTION('ref_axis',(1.,0.,-5.9211894646675E-16));
#326=DIRECTION('center_axis',(-6.90805437544542E-16,0.,-1.));
#327=DIRECTION('ref_axis',(1.,0.,-5.9211894646675E-16));
#328=DIRECTION('',(-5.9211894646675E-16,0.,-1.));
#329=DIRECTION('center_axis',(3.75008666095608E-15,0.,1.));
#330=DIRECTION('ref_axis',(1.,0.,-5.9211894646675E-16));
#331=DIRECTION('center_axis',(-5.9211894646675E-16,0.,-1.));
#332=DIRECTION('ref_axis',(1.,0.,-5.9211894646675E-16));
#333=DIRECTION('center_axis',(-7.89491928622335E-16,0.,-1.));
#334=DIRECTION('ref_axis',(1.,0.,-5.9211894646675E-16));
#335=DIRECTION('',(-5.9211894646675E-16,0.,-1.));
#336=DIRECTION('center_axis',(3.75008666095608E-15,0.,1.));
#337=DIRECTION('ref_axis',(1.,0.,-5.9211894646675E-16));
#338=DIRECTION('center_axis',(0.,1.,0.));
#339=DIRECTION('ref_axis',(-1.,0.,0.));
#340=DIRECTION('center_axis',(0.,1.,0.));
#341=DIRECTION('ref_axis',(-1.,0.,0.));
#342=DIRECTION('',(0.,-1.,0.));
#343=DIRECTION('center_axis',(0.,-1.,0.));
#344=DIRECTION('ref_axis',(-1.,0.,0.));
#345=DIRECTION('center_axis',(0.,1.,0.));
#346=DIRECTION('ref_axis',(-1.,0.,0.));
#347=DIRECTION('center_axis',(0.,-1.,0.));
#348=DIRECTION('ref_axis',(-1.,0.,0.));
#349=DIRECTION('center_axis',(0.,1.,0.));
#350=DIRECTION('ref_axis',(1.,0.,0.));
#351=DIRECTION('',(0.,-1.,0.));
#352=DIRECTION('center_axis',(0.,-1.,0.));
#353=DIRECTION('ref_axis',(1.,0.,0.));
#354=DIRECTION('center_axis',(1.,0.,0.));
#355=DIRECTION('ref_axis',(0.,0.,-1.));
#356=DIRECTION('',(0.,0.,1.));
#357=DIRECTION('',(0.,1.,0.));
#358=DIRECTION('',(0.,0.,-1.));
#359=DIRECTION('',(0.,1.,0.));
#360=DIRECTION('center_axis',(6.90805437544542E-16,0.,1.));
#361=DIRECTION('ref_axis',(1.,0.,-6.90805437544542E-16));
#362=DIRECTION('',(-1.,0.,6.90805437544542E-16));
#363=DIRECTION('',(1.,0.,-6.90805437544542E-16));
#364=DIRECTION('',(0.,1.,0.));
#365=DIRECTION('center_axis',(1.,0.,0.));
#366=DIRECTION('ref_axis',(0.,0.,-1.));
#367=DIRECTION('',(0.,0.,1.));
#368=DIRECTION('',(0.,0.,-1.));
#369=DIRECTION('',(0.,1.,0.));
#370=DIRECTION('center_axis',(1.18318053767196E-14,0.,1.));
#371=DIRECTION('ref_axis',(1.,0.,-1.18318053767196E-14));
#372=DIRECTION('',(-1.,0.,1.18318053767196E-14));
#373=DIRECTION('',(1.,0.,-1.18318053767196E-14));
#374=DIRECTION('',(0.,1.,0.));
#375=DIRECTION('center_axis',(-1.,0.,3.64821252306916E-14));
#376=DIRECTION('ref_axis',(3.64821252306916E-14,0.,1.));
#377=DIRECTION('',(-3.64821252306916E-14,0.,-1.));
#378=DIRECTION('',(3.64821252306916E-14,0.,1.));
#379=DIRECTION('',(0.,1.,0.));
#380=DIRECTION('center_axis',(7.89491928622335E-16,0.,1.));
#381=DIRECTION('ref_axis',(1.,0.,-7.89491928622335E-16));
#382=DIRECTION('',(-1.,0.,7.89491928622335E-16));
#383=DIRECTION('',(1.,0.,-7.89491928622335E-16));
#384=DIRECTION('',(0.,1.,0.));
#385=DIRECTION('center_axis',(-1.,0.,0.));
#386=DIRECTION('ref_axis',(0.,0.,1.));
#387=DIRECTION('',(0.,0.,-1.));
#388=DIRECTION('',(0.,0.,1.));
#389=DIRECTION('',(0.,1.,0.));
#390=DIRECTION('center_axis',(-3.75008666095608E-15,0.,-1.));
#391=DIRECTION('ref_axis',(-1.,0.,3.75008666095608E-15));
#392=DIRECTION('',(-1.,0.,3.75008666095608E-15));
#393=DIRECTION('',(-1.,0.,3.75008666095608E-15));
#394=DIRECTION('center_axis',(0.,1.,0.));
#395=DIRECTION('ref_axis',(1.,0.,0.));
#396=DIRECTION('center_axis',(0.,1.,0.));
#397=DIRECTION('ref_axis',(1.,0.,0.));
#398=CARTESIAN_POINT('',(0.,0.,0.));
#399=CARTESIAN_POINT('Origin',(92.5,30.,14.9999999999998));
#400=CARTESIAN_POINT('',(86.5,30.,14.9999999999999));
#401=CARTESIAN_POINT('Origin',(92.5,30.,14.9999999999998));
#402=CARTESIAN_POINT('',(86.5,30.,-15.0000000000001));
#403=CARTESIAN_POINT('',(86.5,30.,14.9999999999999));
#404=CARTESIAN_POINT('Origin',(92.5,30.,-15.0000000000002));
#405=CARTESIAN_POINT('Origin',(-95.,30.,15.));
#406=CARTESIAN_POINT('',(-101.,30.,15.));
#407=CARTESIAN_POINT('Origin',(-95.,30.,15.));
#408=CARTESIAN_POINT('',(-101.,30.,-15.));
#409=CARTESIAN_POINT('',(-101.,30.,15.));
#410=CARTESIAN_POINT('Origin',(-95.,30.,-15.));
#411=CARTESIAN_POINT('Origin',(0.,60.,0.));
#412=CARTESIAN_POINT('',(10.5,62.,-1.28587913910472E-15));
#413=CARTESIAN_POINT('Origin',(0.,62.,0.));
#414=CARTESIAN_POINT('',(10.5,60.,-1.28587913910472E-15));
#415=CARTESIAN_POINT('',(10.5,60.,-1.28587913910472E-15));
#416=CARTESIAN_POINT('Origin',(0.,60.,0.));
#417=CARTESIAN_POINT('Origin',(0.,62.,0.));
#418=CARTESIAN_POINT('',(-9.5,62.,1.16341445918999E-15));
#419=CARTESIAN_POINT('Origin',(0.,62.,0.));
#420=CARTESIAN_POINT('Origin',(0.,0.,0.));
#421=CARTESIAN_POINT('',(-9.5,0.,1.16341445918999E-15));
#422=CARTESIAN_POINT('',(-9.5,0.,1.16341445918999E-15));
#423=CARTESIAN_POINT('Origin',(0.,0.,0.));
#424=CARTESIAN_POINT('Origin',(115.,0.,14.9999999999998));
#425=CARTESIAN_POINT('',(115.,0.,-15.0000000000002));
#426=CARTESIAN_POINT('',(115.,0.,14.9999999999998));
#427=CARTESIAN_POINT('',(115.,0.,-15.0000000000002));
#428=CARTESIAN_POINT('',(115.,60.,-15.0000000000002));
#429=CARTESIAN_POINT('',(115.,0.,-15.0000000000002));
#430=CARTESIAN_POINT('',(115.,60.,14.9999999999998));
#431=CARTESIAN_POINT('',(115.,60.,-15.0000000000002));
#432=CARTESIAN_POINT('',(115.,0.,14.9999999999998));
#433=CARTESIAN_POINT('Origin',(70.0000000000001,0.,14.9999999999999));
#434=CARTESIAN_POINT('',(70.0000000000001,0.,14.9999999999999));
#435=CARTESIAN_POINT('',(115.,0.,14.9999999999998));
#436=CARTESIAN_POINT('',(70.0000000000001,60.,14.9999999999999));
#437=CARTESIAN_POINT('',(115.,60.,14.9999999999998));
#438=CARTESIAN_POINT('',(70.0000000000001,0.,14.9999999999999));
#439=CARTESIAN_POINT('Origin',(70.0000000000001,0.,34.7199180532335));
#440=CARTESIAN_POINT('',(70.0000000000001,0.,34.7199180532335));
#441=CARTESIAN_POINT('',(70.0000000000001,0.,14.9999999999999));
#442=CARTESIAN_POINT('',(70.0000000000001,60.,34.7199180532335));
#443=CARTESIAN_POINT('',(70.0000000000001,60.,14.9999999999999));
#444=CARTESIAN_POINT('',(70.0000000000001,0.,34.7199180532335));
#445=CARTESIAN_POINT('Origin',(-69.9999999999994,0.,34.7199180532352));
#446=CARTESIAN_POINT('',(-69.9999999999994,0.,34.7199180532352));
#447=CARTESIAN_POINT('',(70.0000000000001,0.,34.7199180532335));
#448=CARTESIAN_POINT('',(-69.9999999999994,60.,34.7199180532352));
#449=CARTESIAN_POINT('',(70.0000000000001,60.,34.7199180532335));
#450=CARTESIAN_POINT('',(-69.9999999999994,0.,34.7199180532352));
#451=CARTESIAN_POINT('Origin',(-70.0000000000001,0.,15.));
#452=CARTESIAN_POINT('',(-70.0000000000001,0.,15.));
#453=CARTESIAN_POINT('',(-69.9999999999994,0.,34.7199180532352));
#454=CARTESIAN_POINT('',(-70.0000000000001,60.,15.));
#455=CARTESIAN_POINT('',(-69.9999999999994,60.,34.7199180532352));
#456=CARTESIAN_POINT('',(-70.0000000000001,0.,15.));
#457=CARTESIAN_POINT('Origin',(-115.,0.,15.));
#458=CARTESIAN_POINT('',(-115.,0.,15.));
#459=CARTESIAN_POINT('',(-70.0000000000001,0.,15.));
#460=CARTESIAN_POINT('',(-115.,60.,15.));
#461=CARTESIAN_POINT('',(-70.0000000000001,60.,15.));
#462=CARTESIAN_POINT('',(-115.,0.,15.));
#463=CARTESIAN_POINT('Origin',(-115.,0.,-15.));
#464=CARTESIAN_POINT('',(-115.,0.,-15.));
#465=CARTESIAN_POINT('',(-115.,0.,15.));
#466=CARTESIAN_POINT('',(-115.,60.,-15.));
#467=CARTESIAN_POINT('',(-115.,60.,15.));
#468=CARTESIAN_POINT('',(-115.,0.,-15.));
#469=CARTESIAN_POINT('Origin',(115.,0.,-15.0000000000002));
#470=CARTESIAN_POINT('',(115.,0.,-15.0000000000002));
#471=CARTESIAN_POINT('',(115.,60.,-15.0000000000002));
#472=CARTESIAN_POINT('Origin',(3.5527136788005E-14,60.,9.8599590266175));
#473=CARTESIAN_POINT('Origin',(3.5527136788005E-14,0.,9.8599590266175));
#474=UNCERTAINTY_MEASURE_WITH_UNIT(LENGTH_MEASURE(0.01),#478,
'DISTANCE_ACCURACY_VALUE',
'Maximum model space distance between geometric entities at asserted c
onnectivities');
#475=UNCERTAINTY_MEASURE_WITH_UNIT(LENGTH_MEASURE(0.01),#478,
'DISTANCE_ACCURACY_VALUE',
'Maximum model space distance between geometric entities at asserted c
onnectivities');
#476=(
GEOMETRIC_REPRESENTATION_CONTEXT(3)
GLOBAL_UNCERTAINTY_ASSIGNED_CONTEXT((#474))
GLOBAL_UNIT_ASSIGNED_CONTEXT((#478,#480,#481))
REPRESENTATION_CONTEXT('','3D')
);
#477=(
GEOMETRIC_REPRESENTATION_CONTEXT(3)
GLOBAL_UNCERTAINTY_ASSIGNED_CONTEXT((#475))
GLOBAL_UNIT_ASSIGNED_CONTEXT((#478,#480,#481))
REPRESENTATION_CONTEXT('','3D')
);
#478=(
LENGTH_UNIT()
NAMED_UNIT(*)
SI_UNIT(.MILLI.,.METRE.)
);
#479=(
LENGTH_UNIT()
NAMED_UNIT(*)
SI_UNIT($,.METRE.)
);
#480=(
NAMED_UNIT(*)
PLANE_ANGLE_UNIT()
SI_UNIT($,.RADIAN.)
);
#481=(
NAMED_UNIT(*)
SI_UNIT($,.STERADIAN.)
SOLID_ANGLE_UNIT()
);
#482=SHAPE_DEFINITION_REPRESENTATION(#483,#484);
#483=PRODUCT_DEFINITION_SHAPE('',$,#486);
#484=SHAPE_REPRESENTATION('',(#298),#476);
#485=PRODUCT_DEFINITION_CONTEXT('part definition',#490,'design');
#486=PRODUCT_DEFINITION('Tete_outil_pivot','Tete_outil_pivot',#487,#485);
#487=PRODUCT_DEFINITION_FORMATION('',$,#492);
#488=PRODUCT_RELATED_PRODUCT_CATEGORY('Tete_outil_pivot',
'Tete_outil_pivot',(#492));
#489=APPLICATION_PROTOCOL_DEFINITION('international standard',
'automotive_design',2009,#490);
#490=APPLICATION_CONTEXT(
'Core Data for Automotive Mechanical Design Process');
#491=PRODUCT_CONTEXT('part definition',#490,'mechanical');
#492=PRODUCT('Tete_outil_pivot','Tete_outil_pivot',$,(#491));
#493=PRESENTATION_STYLE_ASSIGNMENT((#494));
#494=SURFACE_STYLE_USAGE(.BOTH.,#495);
#495=SURFACE_SIDE_STYLE('',(#496));
#496=SURFACE_STYLE_FILL_AREA(#497);
#497=FILL_AREA_STYLE('Acier - Satin\X\E9',(#498));
#498=FILL_AREA_STYLE_COLOUR('Acier - Satin\X\E9',#499);
#499=COLOUR_RGB('Acier - Satin\X\E9',0.627450980392157,0.627450980392157,
0.627450980392157);
ENDSEC;
END-ISO-10303-21;
