ISO-10303-21;
HEADER;
/* Generated by software containing ST-Developer
 * from STEP Tools, Inc. (www.steptools.com) 
 */

FILE_DESCRIPTION(
/* description */ (''),
/* implementation_level */ '2;1');

FILE_NAME(
/* name */ 'BOTTOM INSERT AIR SHOCKS v1.step',
/* time_stamp */ '2023-01-21T20:30:05+01:00',
/* author */ (''),
/* organization */ (''),
/* preprocessor_version */ 'ST-DEVELOPER v19.2',
/* originating_system */ 'Autodesk Translation Framework v11.17.0.187',

/* authorisation */ '');

FILE_SCHEMA (('AUTOMOTIVE_DESIGN { 1 0 10303 214 3 1 1 }'));
ENDSEC;

DATA;
#10=MECHANICAL_DESIGN_GEOMETRIC_PRESENTATION_REPRESENTATION('',(#13),#125);
#11=SHAPE_REPRESENTATION_RELATIONSHIP('SRR','None',#132,#12);
#12=ADVANCED_BREP_SHAPE_REPRESENTATION('',(#14),#124);
#13=STYLED_ITEM('',(#141),#14);
#14=MANIFOLD_SOLID_BREP('Body1',#65);
#15=LINE('',#115,#17);
#16=LINE('',#119,#18);
#17=VECTOR('',#97,3.2);
#18=VECTOR('',#102,6.);
#19=CYLINDRICAL_SURFACE('',#82,3.2);
#20=CYLINDRICAL_SURFACE('',#84,6.);
#21=FACE_BOUND('',#28,.T.);
#22=FACE_BOUND('',#32,.T.);
#23=FACE_OUTER_BOUND('',#27,.T.);
#24=FACE_OUTER_BOUND('',#29,.T.);
#25=FACE_OUTER_BOUND('',#30,.T.);
#26=FACE_OUTER_BOUND('',#31,.T.);
#27=EDGE_LOOP('',(#47));
#28=EDGE_LOOP('',(#48));
#29=EDGE_LOOP('',(#49,#50,#51,#52));
#30=EDGE_LOOP('',(#53,#54,#55,#56));
#31=EDGE_LOOP('',(#57));
#32=EDGE_LOOP('',(#58));
#33=CIRCLE('',#80,6.);
#34=CIRCLE('',#81,3.2);
#35=CIRCLE('',#83,3.2);
#36=CIRCLE('',#85,6.);
#37=VERTEX_POINT('',#109);
#38=VERTEX_POINT('',#111);
#39=VERTEX_POINT('',#114);
#40=VERTEX_POINT('',#118);
#41=EDGE_CURVE('',#37,#37,#33,.T.);
#42=EDGE_CURVE('',#38,#38,#34,.T.);
#43=EDGE_CURVE('',#38,#39,#15,.T.);
#44=EDGE_CURVE('',#39,#39,#35,.T.);
#45=EDGE_CURVE('',#37,#40,#16,.T.);
#46=EDGE_CURVE('',#40,#40,#36,.T.);
#47=ORIENTED_EDGE('',*,*,#41,.F.);
#48=ORIENTED_EDGE('',*,*,#42,.F.);
#49=ORIENTED_EDGE('',*,*,#42,.T.);
#50=ORIENTED_EDGE('',*,*,#43,.T.);
#51=ORIENTED_EDGE('',*,*,#44,.T.);
#52=ORIENTED_EDGE('',*,*,#43,.F.);
#53=ORIENTED_EDGE('',*,*,#41,.T.);
#54=ORIENTED_EDGE('',*,*,#45,.T.);
#55=ORIENTED_EDGE('',*,*,#46,.T.);
#56=ORIENTED_EDGE('',*,*,#45,.F.);
#57=ORIENTED_EDGE('',*,*,#46,.F.);
#58=ORIENTED_EDGE('',*,*,#44,.F.);
#59=PLANE('',#79);
#60=PLANE('',#86);
#61=ADVANCED_FACE('',(#23,#21),#59,.T.);
#62=ADVANCED_FACE('',(#24),#19,.F.);
#63=ADVANCED_FACE('',(#25),#20,.T.);
#64=ADVANCED_FACE('',(#26,#22),#60,.F.);
#65=CLOSED_SHELL('',(#61,#62,#63,#64));
#66=DERIVED_UNIT_ELEMENT(#68,1.);
#67=DERIVED_UNIT_ELEMENT(#127,-3.);
#68=(
MASS_UNIT()
NAMED_UNIT(*)
SI_UNIT(.KILO.,.GRAM.)
);
#69=DERIVED_UNIT((#66,#67));
#70=MEASURE_REPRESENTATION_ITEM('density measure',
POSITIVE_RATIO_MEASURE(2700.),#69);
#71=PROPERTY_DEFINITION_REPRESENTATION(#76,#73);
#72=PROPERTY_DEFINITION_REPRESENTATION(#77,#74);
#73=REPRESENTATION('material name',(#75),#124);
#74=REPRESENTATION('density',(#70),#124);
#75=DESCRIPTIVE_REPRESENTATION_ITEM('Aluminum 6061, Welded',
'Aluminum 6061, Welded');
#76=PROPERTY_DEFINITION('material property','material name',#134);
#77=PROPERTY_DEFINITION('material property','density of part',#134);
#78=AXIS2_PLACEMENT_3D('placement',#107,#87,#88);
#79=AXIS2_PLACEMENT_3D('',#108,#89,#90);
#80=AXIS2_PLACEMENT_3D('',#110,#91,#92);
#81=AXIS2_PLACEMENT_3D('',#112,#93,#94);
#82=AXIS2_PLACEMENT_3D('',#113,#95,#96);
#83=AXIS2_PLACEMENT_3D('',#116,#98,#99);
#84=AXIS2_PLACEMENT_3D('',#117,#100,#101);
#85=AXIS2_PLACEMENT_3D('',#120,#103,#104);
#86=AXIS2_PLACEMENT_3D('',#121,#105,#106);
#87=DIRECTION('axis',(0.,0.,1.));
#88=DIRECTION('refdir',(1.,0.,0.));
#89=DIRECTION('center_axis',(0.,1.,0.));
#90=DIRECTION('ref_axis',(1.,0.,0.));
#91=DIRECTION('center_axis',(0.,-1.,0.));
#92=DIRECTION('ref_axis',(1.,0.,0.));
#93=DIRECTION('center_axis',(0.,1.,0.));
#94=DIRECTION('ref_axis',(1.,0.,0.));
#95=DIRECTION('center_axis',(0.,1.,0.));
#96=DIRECTION('ref_axis',(1.,0.,0.));
#97=DIRECTION('',(0.,-1.,0.));
#98=DIRECTION('center_axis',(0.,-1.,0.));
#99=DIRECTION('ref_axis',(1.,0.,0.));
#100=DIRECTION('center_axis',(0.,1.,0.));
#101=DIRECTION('ref_axis',(1.,0.,0.));
#102=DIRECTION('',(0.,-1.,0.));
#103=DIRECTION('center_axis',(0.,1.,0.));
#104=DIRECTION('ref_axis',(1.,0.,0.));
#105=DIRECTION('center_axis',(0.,1.,0.));
#106=DIRECTION('ref_axis',(1.,0.,0.));
#107=CARTESIAN_POINT('',(0.,0.,0.));
#108=CARTESIAN_POINT('Origin',(0.,22.,0.));
#109=CARTESIAN_POINT('',(-6.,22.,7.34788079488412E-16));
#110=CARTESIAN_POINT('Origin',(0.,22.,0.));
#111=CARTESIAN_POINT('',(-0.899999918043615,22.,3.30654645806548E-16));
#112=CARTESIAN_POINT('Origin',(2.30000008195639,22.,-6.12323299206051E-17));
#113=CARTESIAN_POINT('Origin',(2.30000008195639,0.,-6.12323299206051E-17));
#114=CARTESIAN_POINT('',(-0.899999918043615,0.,3.30654645806548E-16));
#115=CARTESIAN_POINT('',(-0.899999918043615,0.,3.30654645806548E-16));
#116=CARTESIAN_POINT('Origin',(2.30000008195639,0.,-6.12323299206051E-17));
#117=CARTESIAN_POINT('Origin',(0.,0.,0.));
#118=CARTESIAN_POINT('',(-6.,0.,7.34788079488412E-16));
#119=CARTESIAN_POINT('',(-6.,0.,7.34788079488412E-16));
#120=CARTESIAN_POINT('Origin',(0.,0.,0.));
#121=CARTESIAN_POINT('Origin',(0.,0.,0.));
#122=UNCERTAINTY_MEASURE_WITH_UNIT(LENGTH_MEASURE(0.01),#126,
'DISTANCE_ACCURACY_VALUE',
'Maximum model space distance between geometric entities at asserted c
onnectivities');
#123=UNCERTAINTY_MEASURE_WITH_UNIT(LENGTH_MEASURE(0.01),#126,
'DISTANCE_ACCURACY_VALUE',
'Maximum model space distance between geometric entities at asserted c
onnectivities');
#124=(
GEOMETRIC_REPRESENTATION_CONTEXT(3)
GLOBAL_UNCERTAINTY_ASSIGNED_CONTEXT((#122))
GLOBAL_UNIT_ASSIGNED_CONTEXT((#126,#128,#129))
REPRESENTATION_CONTEXT('','3D')
);
#125=(
GEOMETRIC_REPRESENTATION_CONTEXT(3)
GLOBAL_UNCERTAINTY_ASSIGNED_CONTEXT((#123))
GLOBAL_UNIT_ASSIGNED_CONTEXT((#126,#128,#129))
REPRESENTATION_CONTEXT('','3D')
);
#126=(
LENGTH_UNIT()
NAMED_UNIT(*)
SI_UNIT(.MILLI.,.METRE.)
);
#127=(
LENGTH_UNIT()
NAMED_UNIT(*)
SI_UNIT($,.METRE.)
);
#128=(
NAMED_UNIT(*)
PLANE_ANGLE_UNIT()
SI_UNIT($,.RADIAN.)
);
#129=(
NAMED_UNIT(*)
SI_UNIT($,.STERADIAN.)
SOLID_ANGLE_UNIT()
);
#130=SHAPE_DEFINITION_REPRESENTATION(#131,#132);
#131=PRODUCT_DEFINITION_SHAPE('',$,#134);
#132=SHAPE_REPRESENTATION('',(#78),#124);
#133=PRODUCT_DEFINITION_CONTEXT('part definition',#138,'design');
#134=PRODUCT_DEFINITION('BOTTOM INSERT AIR SHOCKS',
'BOTTOM INSERT AIR SHOCKS v1',#135,#133);
#135=PRODUCT_DEFINITION_FORMATION('',$,#140);
#136=PRODUCT_RELATED_PRODUCT_CATEGORY('BOTTOM INSERT AIR SHOCKS v1',
'BOTTOM INSERT AIR SHOCKS v1',(#140));
#137=APPLICATION_PROTOCOL_DEFINITION('international standard',
'automotive_design',2009,#138);
#138=APPLICATION_CONTEXT(
'Core Data for Automotive Mechanical Design Process');
#139=PRODUCT_CONTEXT('part definition',#138,'mechanical');
#140=PRODUCT('BOTTOM INSERT AIR SHOCKS','BOTTOM INSERT AIR SHOCKS v1',$,
(#139));
#141=PRESENTATION_STYLE_ASSIGNMENT((#142));
#142=SURFACE_STYLE_USAGE(.BOTH.,#143);
#143=SURFACE_SIDE_STYLE('',(#144));
#144=SURFACE_STYLE_FILL_AREA(#145);
#145=FILL_AREA_STYLE('Aluminum - Satin',(#146));
#146=FILL_AREA_STYLE_COLOUR('Aluminum - Satin',#147);
#147=COLOUR_RGB('Aluminum - Satin',0.96078431372549,0.96078431372549,0.964705882352941);
ENDSEC;
END-ISO-10303-21;
