ISO-10303-21;
HEADER;
FILE_DESCRIPTION (( 'STEP AP214' ),
    '1' );
FILE_NAME ('ARL-CI01-02-A-COUVERCLE.STEP',
    '2023-01-26T11:50:40',
    ( 'T' ),
    ( 'F' ),
    'SwSTEP 2.0',
    'SolidWorks 2001340',
    '' );
FILE_SCHEMA (( 'AUTOMOTIVE_DESIGN' ));
ENDSEC;

DATA;
#1 = EDGE_CURVE ( 'NONE', #395, #5, #108, .T. ) ;
#2 = ADVANCED_FACE ( 'NONE', ( #130 ), #131, .F. ) ;
#3 = VERTEX_POINT ( 'NONE', #136 ) ;
#4 = EDGE_LOOP ( 'NONE', ( #21, #76 ) ) ;
#5 = VERTEX_POINT ( 'NONE', #142 ) ;
#6 = EDGE_LOOP ( 'NONE', ( #85, #84 ) ) ;
#7 = ORIENTED_EDGE ( 'NONE', *, *, #81, .F. ) ;
#8 = ADVANCED_FACE ( 'NONE', ( #157 ), #158, .F. ) ;
#9 = ORIENTED_EDGE ( 'NONE', *, *, #13, .F. ) ;
#10 = EDGE_CURVE ( 'NONE', #80, #86, #172, .T. ) ;
#11 = VERTEX_POINT ( 'NONE', #191 ) ;
#12 = ADVANCED_FACE ( 'NONE', ( #192 ), #193, .F. ) ;
#13 = EDGE_CURVE ( 'NONE', #400, #101, #198, .T. ) ;
#14 = ORIENTED_EDGE ( 'NONE', *, *, #223, .F. ) ;
#15 = ORIENTED_EDGE ( 'NONE', *, *, #10, .T. ) ;
#16 = ADVANCED_FACE ( 'NONE', ( #203 ), #204, .F. ) ;
#17 = ADVANCED_FACE ( 'NONE', ( #209 ), #210, .F. ) ;
#18 = ORIENTED_EDGE ( 'NONE', *, *, #62, .F. ) ;
#19 = ORIENTED_EDGE ( 'NONE', *, *, #60, .F. ) ;
#20 = ORIENTED_EDGE ( 'NONE', *, *, #62, .T. ) ;
#21 = ORIENTED_EDGE ( 'NONE', *, *, #23, .F. ) ;
#22 = ORIENTED_EDGE ( 'NONE', *, *, #23, .T. ) ;
#23 = EDGE_CURVE ( 'NONE', #86, #80, #228, .T. ) ;
#24 = ORIENTED_EDGE ( 'NONE', *, *, #89, .T. ) ;
#25 = EDGE_LOOP ( 'NONE', ( #19, #41, #40, #71 ) ) ;
#26 = ORIENTED_EDGE ( 'NONE', *, *, #79, .T. ) ;
#27 = ORIENTED_EDGE ( 'NONE', *, *, #30, .T. ) ;
#28 = ORIENTED_EDGE ( 'NONE', *, *, #54, .F. ) ;
#29 = ORIENTED_EDGE ( 'NONE', *, *, #224, .F. ) ;
#30 = EDGE_CURVE ( 'NONE', #56, #37, #252, .T. ) ;
#31 = EDGE_CURVE ( 'NONE', #241, #5, #256, .T. ) ;
#32 = ORIENTED_EDGE ( 'NONE', *, *, #55, .T. ) ;
#33 = ORIENTED_EDGE ( 'NONE', *, *, #328, .T. ) ;
#34 = ORIENTED_EDGE ( 'NONE', *, *, #43, .F. ) ;
#35 = VERTEX_POINT ( 'NONE', #276 ) ;
#36 = EDGE_CURVE ( 'NONE', #408, #35, #283, .T. ) ;
#37 = VERTEX_POINT ( 'NONE', #288 ) ;
#38 = ORIENTED_EDGE ( 'NONE', *, *, #79, .F. ) ;
#39 = EDGE_LOOP ( 'NONE', ( #42, #139, #75, #277 ) ) ;
#40 = ORIENTED_EDGE ( 'NONE', *, *, #13, .T. ) ;
#41 = ORIENTED_EDGE ( 'NONE', *, *, #45, .F. ) ;
#42 = ORIENTED_EDGE ( 'NONE', *, *, #397, .F. ) ;
#43 = EDGE_CURVE ( 'NONE', #395, #404, #296, .T. ) ;
#44 = EDGE_LOOP ( 'NONE', ( #33, #92, #91, #88 ) ) ;
#45 = EDGE_CURVE ( 'NONE', #400, #189, #307, .T. ) ;
#46 = ORIENTED_EDGE ( 'NONE', *, *, #58, .F. ) ;
#47 = EDGE_LOOP ( 'NONE', ( #50, #77 ) ) ;
#48 = ORIENTED_EDGE ( 'NONE', *, *, #97, .T. ) ;
#49 = ORIENTED_EDGE ( 'NONE', *, *, #100, .T. ) ;
#50 = ORIENTED_EDGE ( 'NONE', *, *, #45, .T. ) ;
#51 = ORIENTED_EDGE ( 'NONE', *, *, #94, .F. ) ;
#52 = ADVANCED_FACE ( 'NONE', ( #313, #314, #315, #316 ), #317, .F. ) ;
#53 = EDGE_CURVE ( 'NONE', #35, #408, #322, .T. ) ;
#54 = EDGE_CURVE ( 'NONE', #101, #11, #327, .T. ) ;
#55 = EDGE_CURVE ( 'NONE', #56, #407, #333, .T. ) ;
#56 = VERTEX_POINT ( 'NONE', #338 ) ;
#57 = EDGE_LOOP ( 'NONE', ( #96, #190, #66, #49 ) ) ;
#58 = EDGE_CURVE ( 'NONE', #408, #80, #339, .T. ) ;
#59 = ORIENTED_EDGE ( 'NONE', *, *, #119, .F. ) ;
#60 = EDGE_CURVE ( 'NONE', #189, #11, #343, .T. ) ;
#61 = ORIENTED_EDGE ( 'NONE', *, *, #397, .T. ) ;
#62 = EDGE_CURVE ( 'NONE', #35, #86, #352, .T. ) ;
#63 = ADVANCED_FACE ( 'NONE', ( #356, #357, #358, #359 ), #360, .T. ) ;
#64 = VERTEX_POINT ( 'NONE', #367 ) ;
#65 = EDGE_LOOP ( 'NONE', ( #7, #73, #93, #9 ) ) ;
#66 = ORIENTED_EDGE ( 'NONE', *, *, #97, .F. ) ;
#67 = EDGE_LOOP ( 'NONE', ( #70, #38, #69, #68 ) ) ;
#68 = ORIENTED_EDGE ( 'NONE', *, *, #31, .T. ) ;
#69 = ORIENTED_EDGE ( 'NONE', *, *, #223, .T. ) ;
#70 = ORIENTED_EDGE ( 'NONE', *, *, #1, .F. ) ;
#71 = ORIENTED_EDGE ( 'NONE', *, *, #54, .T. ) ;
#72 = EDGE_LOOP ( 'NONE', ( #87, #29 ) ) ;
#73 = ORIENTED_EDGE ( 'NONE', *, *, #60, .T. ) ;
#74 = ORIENTED_EDGE ( 'NONE', *, *, #53, .F. ) ;
#75 = ORIENTED_EDGE ( 'NONE', *, *, #117, .F. ) ;
#76 = ORIENTED_EDGE ( 'NONE', *, *, #10, .F. ) ;
#77 = ORIENTED_EDGE ( 'NONE', *, *, #81, .T. ) ;
#78 = ORIENTED_EDGE ( 'NONE', *, *, #43, .T. ) ;
#79 = EDGE_CURVE ( 'NONE', #404, #395, #102, .T. ) ;
#80 = VERTEX_POINT ( 'NONE', #107 ) ;
#81 = EDGE_CURVE ( 'NONE', #189, #400, #112, .T. ) ;
#82 = ORIENTED_EDGE ( 'NONE', *, *, #120, .T. ) ;
#83 = ADVANCED_FACE ( 'NONE', ( #123 ), #124, .F. ) ;
#84 = ORIENTED_EDGE ( 'NONE', *, *, #36, .T. ) ;
#85 = ORIENTED_EDGE ( 'NONE', *, *, #53, .T. ) ;
#86 = VERTEX_POINT ( 'NONE', #129 ) ;
#87 = ORIENTED_EDGE ( 'NONE', *, *, #31, .F. ) ;
#88 = ORIENTED_EDGE ( 'NONE', *, *, #119, .T. ) ;
#89 = EDGE_CURVE ( 'NONE', #37, #3, #137, .T. ) ;
#90 = EDGE_LOOP ( 'NONE', ( #82, #48, #27, #24 ) ) ;
#91 = ORIENTED_EDGE ( 'NONE', *, *, #89, .F. ) ;
#92 = ORIENTED_EDGE ( 'NONE', *, *, #98, .F. ) ;
#93 = ORIENTED_EDGE ( 'NONE', *, *, #94, .T. ) ;
#94 = EDGE_CURVE ( 'NONE', #11, #101, #143, .T. ) ;
#95 = ORIENTED_EDGE ( 'NONE', *, *, #58, .T. ) ;
#96 = ORIENTED_EDGE ( 'NONE', *, *, #118, .T. ) ;
#97 = EDGE_CURVE ( 'NONE', #64, #56, #148, .T. ) ;
#98 = EDGE_CURVE ( 'NONE', #3, #396, #152, .T. ) ;
#99 = EDGE_LOOP ( 'NONE', ( #28, #51 ) ) ;
#100 = EDGE_CURVE ( 'NONE', #64, #156, #163, .T. ) ;
#101 = VERTEX_POINT ( 'NONE', #167 ) ;
#102 = CIRCLE ( 'NONE', #103, 4.249999999999996400 ) ;
#103 = AXIS2_PLACEMENT_3D ( 'NONE', #104, #105, #106 ) ;
#104 = CARTESIAN_POINT ( 'NONE',  ( -24.99999999999999300, 0.0000000000000000000, 25.00000000000001400 ) ) ;
#105 = DIRECTION ( 'NONE',  ( 0.0000000000000000000, 1.000000000000000000, 0.0000000000000000000 ) ) ;
#106 = DIRECTION ( 'NONE',  ( 0.0000000000000000000, 0.0000000000000000000, 1.000000000000000000 ) ) ;
#107 = CARTESIAN_POINT ( 'NONE',  ( 4.898425415289509000E-016, 0.0000000000000000000, 4.000000000000000000 ) ) ;
#108 = LINE ( 'NONE', #109, #110 ) ;
#109 = CARTESIAN_POINT ( 'NONE',  ( -24.99999999999999300, 0.0000000000000000000, 20.75000000000001800 ) ) ;
#110 = VECTOR ( 'NONE', #111, 1000.000000000000000 ) ;
#111 = DIRECTION ( 'NONE',  ( 0.0000000000000000000, 1.000000000000000000, 0.0000000000000000000 ) ) ;
#112 = CIRCLE ( 'NONE', #113, 4.249999999999996400 ) ;
#113 = AXIS2_PLACEMENT_3D ( 'NONE', #114, #115, #116 ) ;
#114 = CARTESIAN_POINT ( 'NONE',  ( 24.99999999999999300, 0.0000000000000000000, -25.00000000000000000 ) ) ;
#115 = DIRECTION ( 'NONE',  ( 0.0000000000000000000, 1.000000000000000000, 0.0000000000000000000 ) ) ;
#116 = DIRECTION ( 'NONE',  ( 0.0000000000000000000, 0.0000000000000000000, 1.000000000000000000 ) ) ;
#117 = EDGE_CURVE ( 'NONE', #407, #398, #168, .T. ) ;
#118 = EDGE_CURVE ( 'NONE', #156, #407, #177, .T. ) ;
#119 = EDGE_CURVE ( 'NONE', #37, #398, #181, .T. ) ;
#120 = EDGE_CURVE ( 'NONE', #3, #64, #185, .T. ) ;
#121 = EDGE_LOOP ( 'NONE', ( #61, #401, #345, #393 ) ) ;
#122 = ORIENTED_EDGE ( 'NONE', *, *, #30, .F. ) ;
#123 = FACE_OUTER_BOUND ( 'NONE', #25, .T. ) ;
#124 = CYLINDRICAL_SURFACE ( 'NONE', #125, 4.249999999999996400 ) ;
#125 = AXIS2_PLACEMENT_3D ( 'NONE', #126, #127, #128 ) ;
#126 = CARTESIAN_POINT ( 'NONE',  ( 24.99999999999999300, 0.0000000000000000000, -25.00000000000000000 ) ) ;
#127 = DIRECTION ( 'NONE',  ( 0.0000000000000000000, 1.000000000000000000, 0.0000000000000000000 ) ) ;
#128 = DIRECTION ( 'NONE',  ( 0.0000000000000000000, 0.0000000000000000000, 1.000000000000000000 ) ) ;
#129 = CARTESIAN_POINT ( 'NONE',  ( 0.0000000000000000000, 0.0000000000000000000, -4.000000000000000000 ) ) ;
#130 = FACE_OUTER_BOUND ( 'NONE', #394, .T. ) ;
#131 = CYLINDRICAL_SURFACE ( 'NONE', #132, 4.000000000000000000 ) ;
#132 = AXIS2_PLACEMENT_3D ( 'NONE', #133, #134, #135 ) ;
#133 = CARTESIAN_POINT ( 'NONE',  ( 0.0000000000000000000, 10.00000000000000000, 0.0000000000000000000 ) ) ;
#134 = DIRECTION ( 'NONE',  ( 0.0000000000000000000, -1.000000000000000000, 0.0000000000000000000 ) ) ;
#135 = DIRECTION ( 'NONE',  ( 0.0000000000000000000, 0.0000000000000000000, -1.000000000000000000 ) ) ;
#136 = CARTESIAN_POINT ( 'NONE',  ( -35.00000000000001400, 10.00000000000000000, -35.00000000000000000 ) ) ;
#137 = LINE ( 'NONE', #138, #140 ) ;
#138 = CARTESIAN_POINT ( 'NONE',  ( -35.00000000000001400, 10.00000000000000000, -35.00000000000000000 ) ) ;
#139 = ORIENTED_EDGE ( 'NONE', *, *, #328, .F. ) ;
#140 = VECTOR ( 'NONE', #141, 1000.000000000000000 ) ;
#141 = DIRECTION ( 'NONE',  ( -1.000000000000000000, 0.0000000000000000000, 0.0000000000000000000 ) ) ;
#142 = CARTESIAN_POINT ( 'NONE',  ( -24.99999999999999300, 10.00000000000000000, 20.75000000000001800 ) ) ;
#143 = CIRCLE ( 'NONE', #144, 4.249999999999996400 ) ;
#144 = AXIS2_PLACEMENT_3D ( 'NONE', #145, #146, #147 ) ;
#145 = CARTESIAN_POINT ( 'NONE',  ( 24.99999999999999300, 10.00000000000000000, -25.00000000000000000 ) ) ;
#146 = DIRECTION ( 'NONE',  ( 0.0000000000000000000, 1.000000000000000000, 0.0000000000000000000 ) ) ;
#147 = DIRECTION ( 'NONE',  ( 0.0000000000000000000, 0.0000000000000000000, 1.000000000000000000 ) ) ;
#148 = LINE ( 'NONE', #149, #150 ) ;
#149 = CARTESIAN_POINT ( 'NONE',  ( -35.00000000000000000, 10.00000000000000000, 35.00000000000000000 ) ) ;
#150 = VECTOR ( 'NONE', #151, 1000.000000000000000 ) ;
#151 = DIRECTION ( 'NONE',  ( 1.000000000000000000, 0.0000000000000000000, 0.0000000000000000000 ) ) ;
#152 = LINE ( 'NONE', #153, #154 ) ;
#153 = CARTESIAN_POINT ( 'NONE',  ( -35.00000000000001400, 10.00000000000000000, -35.00000000000000000 ) ) ;
#154 = VECTOR ( 'NONE', #155, 1000.000000000000000 ) ;
#155 = DIRECTION ( 'NONE',  ( 0.0000000000000000000, -1.000000000000000000, 0.0000000000000000000 ) ) ;
#156 = VERTEX_POINT ( 'NONE', #202 ) ;
#157 = FACE_OUTER_BOUND ( 'NONE', #402, .T. ) ;
#158 = CYLINDRICAL_SURFACE ( 'NONE', #159, 4.000000000000000000 ) ;
#159 = AXIS2_PLACEMENT_3D ( 'NONE', #160, #161, #162 ) ;
#160 = CARTESIAN_POINT ( 'NONE',  ( 0.0000000000000000000, 10.00000000000000000, 0.0000000000000000000 ) ) ;
#161 = DIRECTION ( 'NONE',  ( 0.0000000000000000000, -1.000000000000000000, 0.0000000000000000000 ) ) ;
#162 = DIRECTION ( 'NONE',  ( 0.0000000000000000000, 0.0000000000000000000, -1.000000000000000000 ) ) ;
#163 = LINE ( 'NONE', #164, #165 ) ;
#164 = CARTESIAN_POINT ( 'NONE',  ( -35.00000000000000000, 10.00000000000000000, 35.00000000000000000 ) ) ;
#165 = VECTOR ( 'NONE', #166, 1000.000000000000000 ) ;
#166 = DIRECTION ( 'NONE',  ( 0.0000000000000000000, -1.000000000000000000, 0.0000000000000000000 ) ) ;
#167 = CARTESIAN_POINT ( 'NONE',  ( 24.99999999999999300, 10.00000000000000000, -20.75000000000000400 ) ) ;
#168 = LINE ( 'NONE', #169, #170 ) ;
#169 = CARTESIAN_POINT ( 'NONE',  ( 34.99999999999999300, 0.0000000000000000000, -35.00000000000000000 ) ) ;
#170 = VECTOR ( 'NONE', #171, 1000.000000000000000 ) ;
#171 = DIRECTION ( 'NONE',  ( -9.912705577010325500E-017, 0.0000000000000000000, -1.000000000000000000 ) ) ;
#172 = CIRCLE ( 'NONE', #173, 4.000000000000000000 ) ;
#173 = AXIS2_PLACEMENT_3D ( 'NONE', #174, #175, #176 ) ;
#174 = CARTESIAN_POINT ( 'NONE',  ( 0.0000000000000000000, 0.0000000000000000000, 0.0000000000000000000 ) ) ;
#175 = DIRECTION ( 'NONE',  ( 0.0000000000000000000, -1.000000000000000000, 0.0000000000000000000 ) ) ;
#176 = DIRECTION ( 'NONE',  ( 0.0000000000000000000, 0.0000000000000000000, -1.000000000000000000 ) ) ;
#177 = LINE ( 'NONE', #178, #179 ) ;
#178 = CARTESIAN_POINT ( 'NONE',  ( -35.00000000000000000, 0.0000000000000000000, 35.00000000000000000 ) ) ;
#179 = VECTOR ( 'NONE', #180, 1000.000000000000000 ) ;
#180 = DIRECTION ( 'NONE',  ( 1.000000000000000000, 0.0000000000000000000, 0.0000000000000000000 ) ) ;
#181 = LINE ( 'NONE', #182, #183 ) ;
#182 = CARTESIAN_POINT ( 'NONE',  ( 34.99999999999999300, 10.00000000000000000, -35.00000000000000000 ) ) ;
#183 = VECTOR ( 'NONE', #184, 1000.000000000000000 ) ;
#184 = DIRECTION ( 'NONE',  ( 0.0000000000000000000, -1.000000000000000000, 0.0000000000000000000 ) ) ;
#185 = LINE ( 'NONE', #186, #187 ) ;
#186 = CARTESIAN_POINT ( 'NONE',  ( -35.00000000000001400, 10.00000000000000000, -35.00000000000000000 ) ) ;
#187 = VECTOR ( 'NONE', #188, 1000.000000000000000 ) ;
#188 = DIRECTION ( 'NONE',  ( 1.982541115402065100E-016, 0.0000000000000000000, 1.000000000000000000 ) ) ;
#189 = VERTEX_POINT ( 'NONE', #216 ) ;
#190 = ORIENTED_EDGE ( 'NONE', *, *, #55, .F. ) ;
#191 = CARTESIAN_POINT ( 'NONE',  ( 24.99999999999999300, 10.00000000000000000, -29.25000000000000000 ) ) ;
#192 = FACE_OUTER_BOUND ( 'NONE', #121, .T. ) ;
#193 = PLANE ( 'NONE',  #194 ) ;
#194 = AXIS2_PLACEMENT_3D ( 'NONE', #195, #196, #197 ) ;
#195 = CARTESIAN_POINT ( 'NONE',  ( -35.00000000000001400, 10.00000000000000000, -35.00000000000000000 ) ) ;
#196 = DIRECTION ( 'NONE',  ( 1.000000000000000000, 0.0000000000000000000, -1.982541115402065100E-016 ) ) ;
#197 = DIRECTION ( 'NONE',  ( -1.982541115402065100E-016, 0.0000000000000000000, -1.000000000000000000 ) ) ;
#198 = LINE ( 'NONE', #199, #200 ) ;
#199 = CARTESIAN_POINT ( 'NONE',  ( 24.99999999999999300, 0.0000000000000000000, -20.75000000000000400 ) ) ;
#200 = VECTOR ( 'NONE', #201, 1000.000000000000000 ) ;
#201 = DIRECTION ( 'NONE',  ( 0.0000000000000000000, 1.000000000000000000, 0.0000000000000000000 ) ) ;
#202 = CARTESIAN_POINT ( 'NONE',  ( -35.00000000000000000, 0.0000000000000000000, 35.00000000000000000 ) ) ;
#203 = FACE_OUTER_BOUND ( 'NONE', #65, .T. ) ;
#204 = CYLINDRICAL_SURFACE ( 'NONE', #205, 4.249999999999996400 ) ;
#205 = AXIS2_PLACEMENT_3D ( 'NONE', #206, #207, #208 ) ;
#206 = CARTESIAN_POINT ( 'NONE',  ( 24.99999999999999300, 0.0000000000000000000, -25.00000000000000000 ) ) ;
#207 = DIRECTION ( 'NONE',  ( 0.0000000000000000000, 1.000000000000000000, 0.0000000000000000000 ) ) ;
#208 = DIRECTION ( 'NONE',  ( 0.0000000000000000000, 0.0000000000000000000, 1.000000000000000000 ) ) ;
#209 = FACE_OUTER_BOUND ( 'NONE', #67, .T. ) ;
#210 = CYLINDRICAL_SURFACE ( 'NONE', #211, 4.249999999999996400 ) ;
#211 = AXIS2_PLACEMENT_3D ( 'NONE', #212, #213, #214 ) ;
#212 = CARTESIAN_POINT ( 'NONE',  ( -24.99999999999999300, 0.0000000000000000000, 25.00000000000001400 ) ) ;
#213 = DIRECTION ( 'NONE',  ( 0.0000000000000000000, 1.000000000000000000, 0.0000000000000000000 ) ) ;
#214 = DIRECTION ( 'NONE',  ( 0.0000000000000000000, 0.0000000000000000000, 1.000000000000000000 ) ) ;
#215 = CARTESIAN_POINT ( 'NONE',  ( -24.99999999999999300, 0.0000000000000000000, 29.25000000000001100 ) ) ;
#216 = CARTESIAN_POINT ( 'NONE',  ( 24.99999999999999300, 0.0000000000000000000, -29.25000000000000000 ) ) ;
#217 = LINE ( 'NONE', #218, #219 ) ;
#218 = CARTESIAN_POINT ( 'NONE',  ( -24.99999999999999300, 0.0000000000000000000, 29.25000000000001100 ) ) ;
#219 = VECTOR ( 'NONE', #220, 1000.000000000000000 ) ;
#220 = DIRECTION ( 'NONE',  ( 0.0000000000000000000, 1.000000000000000000, 0.0000000000000000000 ) ) ;
#221 = CIRCLE ( 'NONE', #222, 4.249999999999996400 ) ;
#222 = AXIS2_PLACEMENT_3D ( 'NONE', #225, #226, #227 ) ;
#223 = EDGE_CURVE ( 'NONE', #404, #241, #217, .T. ) ;
#224 = EDGE_CURVE ( 'NONE', #5, #241, #221, .T. ) ;
#225 = CARTESIAN_POINT ( 'NONE',  ( -24.99999999999999300, 10.00000000000000000, 25.00000000000001400 ) ) ;
#226 = DIRECTION ( 'NONE',  ( 0.0000000000000000000, 1.000000000000000000, 0.0000000000000000000 ) ) ;
#227 = DIRECTION ( 'NONE',  ( 0.0000000000000000000, 0.0000000000000000000, 1.000000000000000000 ) ) ;
#228 = CIRCLE ( 'NONE', #229, 4.000000000000000000 ) ;
#229 = AXIS2_PLACEMENT_3D ( 'NONE', #230, #231, #232 ) ;
#230 = CARTESIAN_POINT ( 'NONE',  ( 0.0000000000000000000, 0.0000000000000000000, 0.0000000000000000000 ) ) ;
#231 = DIRECTION ( 'NONE',  ( 0.0000000000000000000, -1.000000000000000000, 0.0000000000000000000 ) ) ;
#232 = DIRECTION ( 'NONE',  ( 0.0000000000000000000, 0.0000000000000000000, -1.000000000000000000 ) ) ;
#233 = CARTESIAN_POINT ( 'NONE',  ( -24.99999999999999300, 10.00000000000000000, 29.25000000000001100 ) ) ;
#234 = CARTESIAN_POINT ( 'NONE',  ( 34.99999999999999300, 0.0000000000000000000, 35.00000000000000000 ) ) ;
#235 = COLOUR_RGB ( '',0.9411764705882352800, 0.6745098039215686700, 0.1176470588235294100 ) ;
#236 = FILL_AREA_STYLE_COLOUR ( '', #235 ) ;
#237 = FILL_AREA_STYLE ('',( #236 ) ) ;
#238 = SURFACE_STYLE_FILL_AREA ( #237 ) ;
#239 = SURFACE_SIDE_STYLE ('',( #238 ) ) ;
#240 = SURFACE_STYLE_USAGE ( .BOTH. , #239 ) ;
#241 = VERTEX_POINT ( 'NONE', #233 ) ;
#242 = MANIFOLD_SOLID_BREP ( 'NONE', #409 ) ;
#243 = PRESENTATION_STYLE_ASSIGNMENT (( #240 ) ) ;
#244 = STYLED_ITEM ( 'NONE', ( #243 ), #242 ) ;
#245 = PRESENTATION_LAYER_ASSIGNMENT (  '', '', ( #244 ) ) ;
#246 = MECHANICAL_DESIGN_GEOMETRIC_PRESENTATION_REPRESENTATION (  '', ( #244 ), #251 ) ;
#247 =( LENGTH_UNIT ( ) NAMED_UNIT ( * ) SI_UNIT ( .MILLI., .METRE. ) );
#248 =( NAMED_UNIT ( * ) PLANE_ANGLE_UNIT ( ) SI_UNIT ( $, .RADIAN. ) );
#249 =( NAMED_UNIT ( * ) SI_UNIT ( $, .STERADIAN. ) SOLID_ANGLE_UNIT ( ) );
#250 = UNCERTAINTY_MEASURE_WITH_UNIT (LENGTH_MEASURE( 1.000000000000000100E-005 ), #247, 'distance_accuracy_value', 'NONE');
#251 =( GEOMETRIC_REPRESENTATION_CONTEXT ( 3 ) GLOBAL_UNCERTAINTY_ASSIGNED_CONTEXT ( ( #250 ) ) GLOBAL_UNIT_ASSIGNED_CONTEXT ( ( #247, #248, #249 ) ) REPRESENTATION_CONTEXT ( 'NONE', 'WORKASPACE' ) );
#252 = LINE ( 'NONE', #253, #254 ) ;
#253 = CARTESIAN_POINT ( 'NONE',  ( 34.99999999999999300, 10.00000000000000000, -35.00000000000000000 ) ) ;
#254 = VECTOR ( 'NONE', #255, 1000.000000000000000 ) ;
#255 = DIRECTION ( 'NONE',  ( -9.912705577010325500E-017, 0.0000000000000000000, -1.000000000000000000 ) ) ;
#256 = CIRCLE ( 'NONE', #257, 4.249999999999996400 ) ;
#257 = AXIS2_PLACEMENT_3D ( 'NONE', #258, #261, #262 ) ;
#258 = CARTESIAN_POINT ( 'NONE',  ( -24.99999999999999300, 10.00000000000000000, 25.00000000000001400 ) ) ;
#259 = ORIENTED_EDGE ( 'NONE', *, *, #1, .T. ) ;
#260 = EDGE_LOOP ( 'NONE', ( #26, #78 ) ) ;
#261 = DIRECTION ( 'NONE',  ( 0.0000000000000000000, 1.000000000000000000, 0.0000000000000000000 ) ) ;
#262 = DIRECTION ( 'NONE',  ( 0.0000000000000000000, 0.0000000000000000000, 1.000000000000000000 ) ) ;
#263 = CARTESIAN_POINT ( 'NONE',  ( 4.898425415289509000E-016, 10.00000000000000000, 4.000000000000000000 ) ) ;
#264 = FACE_OUTER_BOUND ( 'NONE', #44, .T. ) ;
#265 = PLANE ( 'NONE',  #266 ) ;
#266 = AXIS2_PLACEMENT_3D ( 'NONE', #267, #268, #269 ) ;
#267 = CARTESIAN_POINT ( 'NONE',  ( -35.00000000000001400, 10.00000000000000000, -35.00000000000000000 ) ) ;
#268 = DIRECTION ( 'NONE',  ( 0.0000000000000000000, 0.0000000000000000000, 1.000000000000000000 ) ) ;
#269 = DIRECTION ( 'NONE',  ( 1.000000000000000000, 0.0000000000000000000, 0.0000000000000000000 ) ) ;
#270 = FACE_OUTER_BOUND ( 'NONE', #57, .T. ) ;
#271 = PLANE ( 'NONE',  #272 ) ;
#272 = AXIS2_PLACEMENT_3D ( 'NONE', #273, #274, #275 ) ;
#273 = CARTESIAN_POINT ( 'NONE',  ( -35.00000000000000000, 10.00000000000000000, 35.00000000000000000 ) ) ;
#274 = DIRECTION ( 'NONE',  ( 0.0000000000000000000, 0.0000000000000000000, -1.000000000000000000 ) ) ;
#275 = DIRECTION ( 'NONE',  ( -1.000000000000000000, 0.0000000000000000000, 0.0000000000000000000 ) ) ;
#276 = CARTESIAN_POINT ( 'NONE',  ( 0.0000000000000000000, 10.00000000000000000, -4.000000000000000000 ) ) ;
#277 = ORIENTED_EDGE ( 'NONE', *, *, #118, .F. ) ;
#278 = ADVANCED_FACE ( 'NONE', ( #264 ), #265, .F. ) ;
#279 = LINE ( 'NONE', #280, #281 ) ;
#280 = CARTESIAN_POINT ( 'NONE',  ( -35.00000000000001400, 0.0000000000000000000, -35.00000000000000000 ) ) ;
#281 = VECTOR ( 'NONE', #282, 1000.000000000000000 ) ;
#282 = DIRECTION ( 'NONE',  ( -1.000000000000000000, 0.0000000000000000000, 0.0000000000000000000 ) ) ;
#283 = CIRCLE ( 'NONE', #284, 4.000000000000000000 ) ;
#284 = AXIS2_PLACEMENT_3D ( 'NONE', #285, #286, #287 ) ;
#285 = CARTESIAN_POINT ( 'NONE',  ( 0.0000000000000000000, 10.00000000000000000, 0.0000000000000000000 ) ) ;
#286 = DIRECTION ( 'NONE',  ( 0.0000000000000000000, -1.000000000000000000, 0.0000000000000000000 ) ) ;
#287 = DIRECTION ( 'NONE',  ( 0.0000000000000000000, 0.0000000000000000000, -1.000000000000000000 ) ) ;
#288 = CARTESIAN_POINT ( 'NONE',  ( 34.99999999999999300, 10.00000000000000000, -35.00000000000000000 ) ) ;
#289 = FACE_OUTER_BOUND ( 'NONE', #399, .T. ) ;
#290 = PLANE ( 'NONE',  #291 ) ;
#291 = AXIS2_PLACEMENT_3D ( 'NONE', #292, #293, #294 ) ;
#292 = CARTESIAN_POINT ( 'NONE',  ( 34.99999999999999300, 10.00000000000000000, -35.00000000000000000 ) ) ;
#293 = DIRECTION ( 'NONE',  ( -1.000000000000000000, 0.0000000000000000000, 9.912705577010325500E-017 ) ) ;
#294 = DIRECTION ( 'NONE',  ( 9.912705577010325500E-017, 0.0000000000000000000, 1.000000000000000000 ) ) ;
#295 = ADVANCED_FACE ( 'NONE', ( #270 ), #271, .F. ) ;
#296 = CIRCLE ( 'NONE', #297, 4.249999999999996400 ) ;
#297 = AXIS2_PLACEMENT_3D ( 'NONE', #298, #299, #300 ) ;
#298 = CARTESIAN_POINT ( 'NONE',  ( -24.99999999999999300, 0.0000000000000000000, 25.00000000000001400 ) ) ;
#299 = DIRECTION ( 'NONE',  ( 0.0000000000000000000, 1.000000000000000000, 0.0000000000000000000 ) ) ;
#300 = DIRECTION ( 'NONE',  ( 0.0000000000000000000, 0.0000000000000000000, 1.000000000000000000 ) ) ;
#301 = FACE_OUTER_BOUND ( 'NONE', #406, .T. ) ;
#302 = CYLINDRICAL_SURFACE ( 'NONE', #303, 4.249999999999996400 ) ;
#303 = AXIS2_PLACEMENT_3D ( 'NONE', #304, #305, #306 ) ;
#304 = CARTESIAN_POINT ( 'NONE',  ( -24.99999999999999300, 0.0000000000000000000, 25.00000000000001400 ) ) ;
#305 = DIRECTION ( 'NONE',  ( 0.0000000000000000000, 1.000000000000000000, 0.0000000000000000000 ) ) ;
#306 = DIRECTION ( 'NONE',  ( 0.0000000000000000000, 0.0000000000000000000, 1.000000000000000000 ) ) ;
#307 = CIRCLE ( 'NONE', #308, 4.249999999999996400 ) ;
#308 = AXIS2_PLACEMENT_3D ( 'NONE', #309, #310, #311 ) ;
#309 = CARTESIAN_POINT ( 'NONE',  ( 24.99999999999999300, 0.0000000000000000000, -25.00000000000000000 ) ) ;
#310 = DIRECTION ( 'NONE',  ( 0.0000000000000000000, 1.000000000000000000, 0.0000000000000000000 ) ) ;
#311 = DIRECTION ( 'NONE',  ( 0.0000000000000000000, 0.0000000000000000000, 1.000000000000000000 ) ) ;
#312 = CARTESIAN_POINT ( 'NONE',  ( -24.99999999999999300, 0.0000000000000000000, 20.75000000000001800 ) ) ;
#313 = FACE_BOUND ( 'NONE', #260, .T. ) ;
#314 = FACE_BOUND ( 'NONE', #47, .T. ) ;
#315 = FACE_BOUND ( 'NONE', #4, .T. ) ;
#316 = FACE_OUTER_BOUND ( 'NONE', #39, .T. ) ;
#317 = PLANE ( 'NONE',  #318 ) ;
#318 = AXIS2_PLACEMENT_3D ( 'NONE', #319, #320, #321 ) ;
#319 = CARTESIAN_POINT ( 'NONE',  ( -35.00000000000000000, 0.0000000000000000000, 35.00000000000000000 ) ) ;
#320 = DIRECTION ( 'NONE',  ( 0.0000000000000000000, 1.000000000000000000, 0.0000000000000000000 ) ) ;
#321 = DIRECTION ( 'NONE',  ( 0.0000000000000000000, 0.0000000000000000000, 1.000000000000000000 ) ) ;
#322 = CIRCLE ( 'NONE', #323, 4.000000000000000000 ) ;
#323 = AXIS2_PLACEMENT_3D ( 'NONE', #324, #325, #326 ) ;
#324 = CARTESIAN_POINT ( 'NONE',  ( 0.0000000000000000000, 10.00000000000000000, 0.0000000000000000000 ) ) ;
#325 = DIRECTION ( 'NONE',  ( 0.0000000000000000000, -1.000000000000000000, 0.0000000000000000000 ) ) ;
#326 = DIRECTION ( 'NONE',  ( 0.0000000000000000000, 0.0000000000000000000, -1.000000000000000000 ) ) ;
#327 = CIRCLE ( 'NONE', #329, 4.249999999999996400 ) ;
#328 = EDGE_CURVE ( 'NONE', #398, #396, #279, .T. ) ;
#329 = AXIS2_PLACEMENT_3D ( 'NONE', #330, #331, #332 ) ;
#330 = CARTESIAN_POINT ( 'NONE',  ( 24.99999999999999300, 10.00000000000000000, -25.00000000000000000 ) ) ;
#331 = DIRECTION ( 'NONE',  ( 0.0000000000000000000, 1.000000000000000000, 0.0000000000000000000 ) ) ;
#332 = DIRECTION ( 'NONE',  ( 0.0000000000000000000, 0.0000000000000000000, 1.000000000000000000 ) ) ;
#333 = LINE ( 'NONE', #334, #335 ) ;
#334 = CARTESIAN_POINT ( 'NONE',  ( 34.99999999999999300, 10.00000000000000000, 35.00000000000000000 ) ) ;
#335 = VECTOR ( 'NONE', #336, 1000.000000000000000 ) ;
#336 = DIRECTION ( 'NONE',  ( 0.0000000000000000000, -1.000000000000000000, 0.0000000000000000000 ) ) ;
#337 = CARTESIAN_POINT ( 'NONE',  ( -35.00000000000001400, 0.0000000000000000000, -35.00000000000000000 ) ) ;
#338 = CARTESIAN_POINT ( 'NONE',  ( 34.99999999999999300, 10.00000000000000000, 35.00000000000000000 ) ) ;
#339 = LINE ( 'NONE', #340, #341 ) ;
#340 = CARTESIAN_POINT ( 'NONE',  ( 4.898425415289509000E-016, 10.00000000000000000, 4.000000000000000000 ) ) ;
#341 = VECTOR ( 'NONE', #342, 1000.000000000000000 ) ;
#342 = DIRECTION ( 'NONE',  ( 0.0000000000000000000, -1.000000000000000000, 0.0000000000000000000 ) ) ;
#343 = LINE ( 'NONE', #344, #346 ) ;
#344 = CARTESIAN_POINT ( 'NONE',  ( 24.99999999999999300, 0.0000000000000000000, -29.25000000000000000 ) ) ;
#345 = ORIENTED_EDGE ( 'NONE', *, *, #120, .F. ) ;
#346 = VECTOR ( 'NONE', #347, 1000.000000000000000 ) ;
#347 = DIRECTION ( 'NONE',  ( 0.0000000000000000000, 1.000000000000000000, 0.0000000000000000000 ) ) ;
#348 = LINE ( 'NONE', #349, #350 ) ;
#349 = CARTESIAN_POINT ( 'NONE',  ( -35.00000000000001400, 0.0000000000000000000, -35.00000000000000000 ) ) ;
#350 = VECTOR ( 'NONE', #351, 1000.000000000000000 ) ;
#351 = DIRECTION ( 'NONE',  ( 1.982541115402065100E-016, 0.0000000000000000000, 1.000000000000000000 ) ) ;
#352 = LINE ( 'NONE', #353, #354 ) ;
#353 = CARTESIAN_POINT ( 'NONE',  ( 0.0000000000000000000, 10.00000000000000000, -4.000000000000000000 ) ) ;
#354 = VECTOR ( 'NONE', #355, 1000.000000000000000 ) ;
#355 = DIRECTION ( 'NONE',  ( 0.0000000000000000000, -1.000000000000000000, 0.0000000000000000000 ) ) ;
#356 = FACE_BOUND ( 'NONE', #72, .T. ) ;
#357 = FACE_BOUND ( 'NONE', #99, .T. ) ;
#358 = FACE_BOUND ( 'NONE', #6, .T. ) ;
#359 = FACE_OUTER_BOUND ( 'NONE', #90, .T. ) ;
#360 = PLANE ( 'NONE',  #361 ) ;
#361 = AXIS2_PLACEMENT_3D ( 'NONE', #364, #365, #366 ) ;
#362 = ORIENTED_EDGE ( 'NONE', *, *, #224, .T. ) ;
#363 = ADVANCED_FACE ( 'NONE', ( #289 ), #290, .F. ) ;
#364 = CARTESIAN_POINT ( 'NONE',  ( -35.00000000000000000, 10.00000000000000000, 35.00000000000000000 ) ) ;
#365 = DIRECTION ( 'NONE',  ( 0.0000000000000000000, 1.000000000000000000, 0.0000000000000000000 ) ) ;
#366 = DIRECTION ( 'NONE',  ( 0.0000000000000000000, 0.0000000000000000000, 1.000000000000000000 ) ) ;
#367 = CARTESIAN_POINT ( 'NONE',  ( -35.00000000000000000, 10.00000000000000000, 35.00000000000000000 ) ) ;
#368 = CARTESIAN_POINT ( 'NONE',  ( 34.99999999999999300, 0.0000000000000000000, -35.00000000000000000 ) ) ;
#369 = CARTESIAN_POINT ( 'NONE',  ( 24.99999999999999300, 0.0000000000000000000, -20.75000000000000400 ) ) ;
#370 =( LENGTH_UNIT ( ) NAMED_UNIT ( * ) SI_UNIT ( .MILLI., .METRE. ) );
#371 =( NAMED_UNIT ( * ) PLANE_ANGLE_UNIT ( ) SI_UNIT ( $, .RADIAN. ) );
#372 =( NAMED_UNIT ( * ) SI_UNIT ( $, .STERADIAN. ) SOLID_ANGLE_UNIT ( ) );
#373 = UNCERTAINTY_MEASURE_WITH_UNIT (LENGTH_MEASURE( 1.000000000000000100E-005 ), #370, 'distance_accuracy_value', 'NONE');
#374 =( GEOMETRIC_REPRESENTATION_CONTEXT ( 3 ) GLOBAL_UNCERTAINTY_ASSIGNED_CONTEXT ( ( #373 ) ) GLOBAL_UNIT_ASSIGNED_CONTEXT ( ( #370, #371, #372 ) ) REPRESENTATION_CONTEXT ( 'NONE', 'WORKASPACE' ) );
#375 = ADVANCED_BREP_SHAPE_REPRESENTATION ( 'ARL-CI01-02-A-COUVERCLE', ( #242, #377 ), #374 ) ;
#376 = ADVANCED_FACE ( 'NONE', ( #301 ), #302, .F. ) ;
#377 = AXIS2_PLACEMENT_3D ( 'NONE', #378, #379, #380 ) ;
#378 = CARTESIAN_POINT ( 'NONE',  ( 0.0000000000000000000, 0.0000000000000000000, 0.0000000000000000000 ) ) ;
#379 = DIRECTION ( 'NONE',  ( 0.0000000000000000000, 0.0000000000000000000, 1.000000000000000000 ) ) ;
#380 = DIRECTION ( 'NONE',  ( 1.000000000000000000, 0.0000000000000000000, 0.0000000000000000000 ) ) ;
#381 = APPLICATION_CONTEXT ( 'automotive_design' ) ;
#382 = APPLICATION_PROTOCOL_DEFINITION ( 'draft international standard', 'automotive_design', 1998, #381 ) ;
#383 = PRODUCT_CONTEXT ( 'NONE', #381, 'mechanical' ) ;
#384 = PRODUCT ( 'ARL-CI01-02-A-COUVERCLE', 'ARL-CI01-02-A-COUVERCLE', '', ( #383 ) ) ;
#385 = APPLICATION_CONTEXT ( 'automotive_design' ) ;
#386 = APPLICATION_PROTOCOL_DEFINITION ( 'draft international standard', 'automotive_design', 1998, #385 ) ;
#387 = PRODUCT_DEFINITION_CONTEXT ( 'detailed design', #385, 'design' ) ;
#388 = PRODUCT_DEFINITION ( 'UNKNOWN', '', #389, #387 ) ;
#389 = PRODUCT_DEFINITION_FORMATION_WITH_SPECIFIED_SOURCE ( 'ANY', '', #384, .NOT_KNOWN. ) ;
#390 = PRODUCT_RELATED_PRODUCT_CATEGORY ( 'part', '', ( #384 ) ) ;
#391 = PRODUCT_DEFINITION_SHAPE ( 'NONE', 'NONE',  #388 ) ;
#392 = SHAPE_DEFINITION_REPRESENTATION ( #391, #375 ) ;
#393 = ORIENTED_EDGE ( 'NONE', *, *, #98, .T. ) ;
#394 = EDGE_LOOP ( 'NONE', ( #405, #95, #15, #18 ) ) ;
#395 = VERTEX_POINT ( 'NONE', #312 ) ;
#396 = VERTEX_POINT ( 'NONE', #337 ) ;
#397 = EDGE_CURVE ( 'NONE', #396, #156, #348, .T. ) ;
#398 = VERTEX_POINT ( 'NONE', #368 ) ;
#399 = EDGE_LOOP ( 'NONE', ( #403, #59, #122, #32 ) ) ;
#400 = VERTEX_POINT ( 'NONE', #369 ) ;
#401 = ORIENTED_EDGE ( 'NONE', *, *, #100, .F. ) ;
#402 = EDGE_LOOP ( 'NONE', ( #46, #74, #20, #22 ) ) ;
#403 = ORIENTED_EDGE ( 'NONE', *, *, #117, .T. ) ;
#404 = VERTEX_POINT ( 'NONE', #215 ) ;
#405 = ORIENTED_EDGE ( 'NONE', *, *, #36, .F. ) ;
#406 = EDGE_LOOP ( 'NONE', ( #34, #259, #362, #14 ) ) ;
#407 = VERTEX_POINT ( 'NONE', #234 ) ;
#408 = VERTEX_POINT ( 'NONE', #263 ) ;
#409 = CLOSED_SHELL ( 'NONE', ( #83, #63, #16, #52, #376, #8, #295, #2, #17, #363, #12, #278 ) ) ;
ENDSEC;
END-ISO-10303-21;
