ISO-10303-21;
HEADER;
FILE_DESCRIPTION( ( 'STEP AP203' ), '1' );
FILE_NAME( ' ', '  ', ( '  ' ), ( '  ' ), 'PSStep 10.1', '  ', '  ' );
FILE_SCHEMA( ( 'CONFIG_CONTROL_DESIGN' ) );
ENDSEC;
DATA;
#1 = DESIGN_CONTEXT( '', #27, 'design' );
#2 = APPLICATION_PROTOCOL_DEFINITION( 'INTERNATIONAL STANDARD', 'config_control_design', 1994, #27 );
#3 = PRODUCT_CATEGORY_RELATIONSHIP( 'NONE', 'NONE', #28, #29 );
#4 = DATE_AND_TIME( #30, #31 );
#5 = DATE_TIME_ROLE( 'creation_date' );
#6 = DATE_TIME_ROLE( 'classification_date' );
#7 = PERSON_AND_ORGANIZATION_ROLE( 'creator' );
#8 = PERSON_AND_ORGANIZATION_ROLE( 'design_supplier' );
#9 = PERSON_AND_ORGANIZATION_ROLE( 'classification_officer' );
#10 = PERSON_AND_ORGANIZATION_ROLE( 'design_owner' );
#11 = APPROVAL_PERSON_ORGANIZATION( #32, #33, #34 );
#12 = APPROVAL_DATE_TIME( #4, #33 );
#13 = CC_DESIGN_APPROVAL( #33, ( #35, #36, #37 ) );
#14 = CC_DESIGN_DATE_AND_TIME_ASSIGNMENT( #4, #5, ( #37 ) );
#15 = CC_DESIGN_DATE_AND_TIME_ASSIGNMENT( #4, #6, ( #35 ) );
#16 = CC_DESIGN_PERSON_AND_ORGANIZATION_ASSIGNMENT( #32, #10, ( #38 ) );
#17 = CC_DESIGN_PERSON_AND_ORGANIZATION_ASSIGNMENT( #32, #7, ( #37 ) );
#18 = CC_DESIGN_PERSON_AND_ORGANIZATION_ASSIGNMENT( #32, #7, ( #36 ) );
#19 = CC_DESIGN_PERSON_AND_ORGANIZATION_ASSIGNMENT( #32, #8, ( #36 ) );
#20 = CC_DESIGN_SECURITY_CLASSIFICATION( #35, ( #36 ) );
#21 = CC_DESIGN_PERSON_AND_ORGANIZATION_ASSIGNMENT( #32, #9, ( #35 ) );
#22 = SHAPE_DEFINITION_REPRESENTATION( #39, #40 );
#23 =  ( GEOMETRIC_REPRESENTATION_CONTEXT( 3 )GLOBAL_UNCERTAINTY_ASSIGNED_CONTEXT( ( #43 ) )GLOBAL_UNIT_ASSIGNED_CONTEXT( ( #45, #46, #47 ) )REPRESENTATION_CONTEXT( 'NONE', 'WORKSPACE' ) );
#27 = APPLICATION_CONTEXT( 'CONFIGURATION CONTROLLED 3D DESIGNS OF MECHANICAL PARTS AND ASSEMBLIES' );
#28 = PRODUCT_CATEGORY( 'part', 'NONE' );
#29 = PRODUCT_RELATED_PRODUCT_CATEGORY( 'detail', ' ', ( #38 ) );
#30 = CALENDAR_DATE( 2023, 31, 0 );
#31 = LOCAL_TIME( 9, 3, 6.00000000000000, #49 );
#32 = PERSON_AND_ORGANIZATION( #50, #51 );
#33 = APPROVAL( #52, 'SOLID MODEL' );
#34 = APPROVAL_ROLE( 'APPROVED' );
#35 = SECURITY_CLASSIFICATION( '', '', #53 );
#36 = PRODUCT_DEFINITION_FORMATION_WITH_SPECIFIED_SOURCE( ' ', 'NONE', #38, .NOT_KNOWN. );
#37 = PRODUCT_DEFINITION( 'NONE', 'NONE', #36, #1 );
#38 = PRODUCT( '1', '1', 'PART-1-DESC', ( #54 ) );
#39 = PRODUCT_DEFINITION_SHAPE( 'NONE', 'NONE', #37 );
#40 = ADVANCED_BREP_SHAPE_REPRESENTATION( '1', ( #55, #56 ), #23 );
#43 = UNCERTAINTY_MEASURE_WITH_UNIT( LENGTH_MEASURE( 0.00100000000000000 ), #45, '', '' );
#45 =  ( CONVERSION_BASED_UNIT( 'MILLIMETRE', #59 )LENGTH_UNIT(  )NAMED_UNIT( #62 ) );
#46 =  ( NAMED_UNIT( #64 )PLANE_ANGLE_UNIT(  )SI_UNIT( $, .RADIAN. ) );
#47 =  ( NAMED_UNIT( #64 )SI_UNIT( $, .STERADIAN. )SOLID_ANGLE_UNIT(  ) );
#49 = COORDINATED_UNIVERSAL_TIME_OFFSET( 1, 0, .AHEAD. );
#50 = PERSON( '', 'UNSPECIFIED', $, $, $, $ );
#51 = ORGANIZATION( 'UNSPECIFIED', 'UNSPECIFIED', 'UNSPECIFIED' );
#52 = APPROVAL_STATUS( 'approved' );
#53 = SECURITY_CLASSIFICATION_LEVEL( 'unclassified' );
#54 = MECHANICAL_CONTEXT( '', #27, 'mechanical' );
#55 = MANIFOLD_SOLID_BREP( '1', #70 );
#56 = AXIS2_PLACEMENT_3D( '', #71, #72, #73 );
#59 = LENGTH_MEASURE_WITH_UNIT( LENGTH_MEASURE( 1.00000000000000 ), #74 );
#62 = DIMENSIONAL_EXPONENTS( 1.00000000000000, 0.000000000000000, 0.000000000000000, 0.000000000000000, 0.000000000000000, 0.000000000000000, 0.000000000000000 );
#64 = DIMENSIONAL_EXPONENTS( 0.000000000000000, 0.000000000000000, 0.000000000000000, 0.000000000000000, 0.000000000000000, 0.000000000000000, 0.000000000000000 );
#70 = CLOSED_SHELL( '', ( #75, #76, #77, #78, #79, #80, #81, #82, #83, #84, #85, #86, #87, #88 ) );
#71 = CARTESIAN_POINT( '', ( 0.000000000000000, 0.000000000000000, 0.000000000000000 ) );
#72 = DIRECTION( '', ( 0.000000000000000, 0.000000000000000, 1.00000000000000 ) );
#73 = DIRECTION( '', ( 1.00000000000000, 0.000000000000000, 0.000000000000000 ) );
#74 =  ( LENGTH_UNIT(  )NAMED_UNIT( #62 )SI_UNIT( .MILLI., .METRE. ) );
#75 = ADVANCED_FACE( '', ( #90 ), #91, .T. );
#76 = ADVANCED_FACE( '', ( #92 ), #93, .F. );
#77 = ADVANCED_FACE( '', ( #94 ), #95, .T. );
#78 = ADVANCED_FACE( '', ( #96 ), #97, .T. );
#79 = ADVANCED_FACE( '', ( #98 ), #99, .F. );
#80 = ADVANCED_FACE( '', ( #100 ), #101, .F. );
#81 = ADVANCED_FACE( '', ( #102 ), #103, .F. );
#82 = ADVANCED_FACE( '', ( #104 ), #105, .T. );
#83 = ADVANCED_FACE( '', ( #106 ), #107, .T. );
#84 = ADVANCED_FACE( '', ( #108 ), #109, .T. );
#85 = ADVANCED_FACE( '', ( #110 ), #111, .T. );
#86 = ADVANCED_FACE( '', ( #112 ), #113, .F. );
#87 = ADVANCED_FACE( '', ( #114 ), #115, .T. );
#88 = ADVANCED_FACE( '', ( #116 ), #117, .T. );
#90 = FACE_OUTER_BOUND( '', #118, .T. );
#91 = CYLINDRICAL_SURFACE( '', #119, 33.4000000000000 );
#92 = FACE_OUTER_BOUND( '', #120, .T. );
#93 = TOROIDAL_SURFACE( '', #121, 33.6000000000003, 0.200000000000000 );
#94 = FACE_OUTER_BOUND( '', #122, .T. );
#95 = CONICAL_SURFACE( '', #123, 33.4000000000000, 0.523598775599000 );
#96 = FACE_OUTER_BOUND( '', #124, .T. );
#97 = CONICAL_SURFACE( '', #125, 33.4000000000000, 0.523598775599000 );
#98 = FACE_OUTER_BOUND( '', #126, .T. );
#99 = TOROIDAL_SURFACE( '', #127, 41.6561088348000, 8.60000000000000 );
#100 = FACE_OUTER_BOUND( '', #128, .T. );
#101 = TOROIDAL_SURFACE( '', #129, 41.6561088348000, 8.60000000000000 );
#102 = FACE_OUTER_BOUND( '', #130, .T. );
#103 = TOROIDAL_SURFACE( '', #131, 33.6000000000002, 0.200000000000000 );
#104 = FACE_OUTER_BOUND( '', #132, .T. );
#105 = CYLINDRICAL_SURFACE( '', #133, 33.4000000000000 );
#106 = FACE_OUTER_BOUND( '', #134, .T. );
#107 = TOROIDAL_SURFACE( '', #135, 30.4000000000000, 3.00000000000000 );
#108 = FACE_OUTER_BOUND( '', #136, .T. );
#109 = TOROIDAL_SURFACE( '', #137, 30.4000000000000, 3.00000000000000 );
#110 = FACE_OUTER_BOUND( '', #138, .T. );
#111 = PLANE( '', #139 );
#112 = FACE_OUTER_BOUND( '', #140, .T. );
#113 = PLANE( '', #141 );
#114 = FACE_OUTER_BOUND( '', #142, .T. );
#115 = CYLINDRICAL_SURFACE( '', #143, 41.6561088349000 );
#116 = FACE_OUTER_BOUND( '', #144, .T. );
#117 = CYLINDRICAL_SURFACE( '', #145, 41.6561088349000 );
#118 = EDGE_LOOP( '', ( #146, #147, #148, #149 ) );
#119 = AXIS2_PLACEMENT_3D( '', #150, #151, #152 );
#120 = EDGE_LOOP( '', ( #153, #154, #155, #156 ) );
#121 = AXIS2_PLACEMENT_3D( '', #157, #158, #159 );
#122 = EDGE_LOOP( '', ( #160, #161, #162, #163 ) );
#123 = AXIS2_PLACEMENT_3D( '', #164, #165, #166 );
#124 = EDGE_LOOP( '', ( #167, #168, #169, #170 ) );
#125 = AXIS2_PLACEMENT_3D( '', #171, #172, #173 );
#126 = EDGE_LOOP( '', ( #174, #175, #176, #177 ) );
#127 = AXIS2_PLACEMENT_3D( '', #178, #179, #180 );
#128 = EDGE_LOOP( '', ( #181, #182, #183, #184 ) );
#129 = AXIS2_PLACEMENT_3D( '', #185, #186, #187 );
#130 = EDGE_LOOP( '', ( #188, #189, #190, #191 ) );
#131 = AXIS2_PLACEMENT_3D( '', #192, #193, #194 );
#132 = EDGE_LOOP( '', ( #195, #196, #197, #198 ) );
#133 = AXIS2_PLACEMENT_3D( '', #199, #200, #201 );
#134 = EDGE_LOOP( '', ( #202, #203, #204, #205 ) );
#135 = AXIS2_PLACEMENT_3D( '', #206, #207, #208 );
#136 = EDGE_LOOP( '', ( #209, #210, #211, #212 ) );
#137 = AXIS2_PLACEMENT_3D( '', #213, #214, #215 );
#138 = EDGE_LOOP( '', ( #216, #217 ) );
#139 = AXIS2_PLACEMENT_3D( '', #218, #219, #220 );
#140 = EDGE_LOOP( '', ( #221, #222 ) );
#141 = AXIS2_PLACEMENT_3D( '', #223, #224, #225 );
#142 = EDGE_LOOP( '', ( #226, #227, #228, #229 ) );
#143 = AXIS2_PLACEMENT_3D( '', #230, #231, #232 );
#144 = EDGE_LOOP( '', ( #233, #234, #235, #236 ) );
#145 = AXIS2_PLACEMENT_3D( '', #237, #238, #239 );
#146 = ORIENTED_EDGE( '', *, *, #240, .F. );
#147 = ORIENTED_EDGE( '', *, *, #241, .T. );
#148 = ORIENTED_EDGE( '', *, *, #242, .T. );
#149 = ORIENTED_EDGE( '', *, *, #243, .T. );
#150 = CARTESIAN_POINT( '', ( 12679.7991686000, -462.500000000000, -1126.65815805000 ) );
#151 = DIRECTION( '', ( -1.06488762455701E-012, -1.00000000000000, -6.52560720924871E-025 ) );
#152 = DIRECTION( '', ( 0.977061236205994, -1.04046041886999E-012, -0.212958542217999 ) );
#153 = ORIENTED_EDGE( '', *, *, #244, .F. );
#154 = ORIENTED_EDGE( '', *, *, #245, .F. );
#155 = ORIENTED_EDGE( '', *, *, #246, .F. );
#156 = ORIENTED_EDGE( '', *, *, #241, .F. );
#157 = CARTESIAN_POINT( '', ( 12679.7991686000, -464.246410187515, -1126.65815805000 ) );
#158 = DIRECTION( '', ( 1.06489065890372E-012, 1.00000000000000, -6.61360201779429E-019 ) );
#159 = DIRECTION( '', ( -1.00000000000000, 1.06489065890373E-012, 0.000000000000000 ) );
#160 = ORIENTED_EDGE( '', *, *, #247, .F. );
#161 = ORIENTED_EDGE( '', *, *, #245, .T. );
#162 = ORIENTED_EDGE( '', *, *, #248, .T. );
#163 = ORIENTED_EDGE( '', *, *, #249, .T. );
#164 = CARTESIAN_POINT( '', ( 12679.7991686000, -464.300000026000, -1126.65815805000 ) );
#165 = DIRECTION( '', ( -1.06489369325044E-012, -1.00000000000000, 1.32272105607323E-018 ) );
#166 = DIRECTION( '', ( 0.977061236205994, -1.04046663003999E-012, -0.212958542217999 ) );
#167 = ORIENTED_EDGE( '', *, *, #248, .F. );
#168 = ORIENTED_EDGE( '', *, *, #250, .T. );
#169 = ORIENTED_EDGE( '', *, *, #247, .T. );
#170 = ORIENTED_EDGE( '', *, *, #251, .T. );
#171 = CARTESIAN_POINT( '', ( 12679.7991686000, -464.300000026000, -1126.65815805000 ) );
#172 = DIRECTION( '', ( -1.06489369325044E-012, -1.00000000000000, 1.32272105607323E-018 ) );
#173 = DIRECTION( '', ( 0.977061236205994, -1.04046663003999E-012, -0.212958542217999 ) );
#174 = ORIENTED_EDGE( '', *, *, #249, .F. );
#175 = ORIENTED_EDGE( '', *, *, #252, .T. );
#176 = ORIENTED_EDGE( '', *, *, #253, .T. );
#177 = ORIENTED_EDGE( '', *, *, #254, .F. );
#178 = CARTESIAN_POINT( '', ( 12679.7991686000, -461.400000000000, -1126.65815805000 ) );
#179 = DIRECTION( '', ( 1.06464793358486E-012, 1.00000000000000, 5.22426218112340E-017 ) );
#180 = DIRECTION( '', ( 0.977061236205994, -1.04021510059999E-012, -0.212958542217999 ) );
#181 = ORIENTED_EDGE( '', *, *, #251, .F. );
#182 = ORIENTED_EDGE( '', *, *, #254, .T. );
#183 = ORIENTED_EDGE( '', *, *, #255, .T. );
#184 = ORIENTED_EDGE( '', *, *, #252, .F. );
#185 = CARTESIAN_POINT( '', ( 12679.7991686000, -461.400000000000, -1126.65815805000 ) );
#186 = DIRECTION( '', ( 1.06464793358486E-012, 1.00000000000000, 5.22426218112340E-017 ) );
#187 = DIRECTION( '', ( 0.977061236205994, -1.04021510059999E-012, -0.212958542217999 ) );
#188 = ORIENTED_EDGE( '', *, *, #246, .T. );
#189 = ORIENTED_EDGE( '', *, *, #250, .F. );
#190 = ORIENTED_EDGE( '', *, *, #244, .T. );
#191 = ORIENTED_EDGE( '', *, *, #256, .F. );
#192 = CARTESIAN_POINT( '', ( 12679.7991686000, -464.246410187514, -1126.65815805000 ) );
#193 = DIRECTION( '', ( 1.06489065890373E-012, 1.00000000000000, -6.61360201779428E-019 ) );
#194 = DIRECTION( '', ( -1.00000000000000, 1.06489065890373E-012, 0.000000000000000 ) );
#195 = ORIENTED_EDGE( '', *, *, #242, .F. );
#196 = ORIENTED_EDGE( '', *, *, #256, .T. );
#197 = ORIENTED_EDGE( '', *, *, #240, .T. );
#198 = ORIENTED_EDGE( '', *, *, #257, .T. );
#199 = CARTESIAN_POINT( '', ( 12679.7991686000, -462.500000000000, -1126.65815805000 ) );
#200 = DIRECTION( '', ( -1.06488762455701E-012, -1.00000000000000, -6.52560720924871E-025 ) );
#201 = DIRECTION( '', ( 0.977061236205994, -1.04046041886999E-012, -0.212958542217999 ) );
#202 = ORIENTED_EDGE( '', *, *, #258, .T. );
#203 = ORIENTED_EDGE( '', *, *, #259, .T. );
#204 = ORIENTED_EDGE( '', *, *, #260, .F. );
#205 = ORIENTED_EDGE( '', *, *, #257, .F. );
#206 = CARTESIAN_POINT( '', ( 12679.7991686000, -428.000000000000, -1126.65815805000 ) );
#207 = DIRECTION( '', ( 1.06428627165470E-012, 1.00000000000000, 5.96963140333574E-017 ) );
#208 = DIRECTION( '', ( -0.977061236205994, 1.03986014741999E-012, 0.212958542217999 ) );
#209 = ORIENTED_EDGE( '', *, *, #260, .T. );
#210 = ORIENTED_EDGE( '', *, *, #261, .T. );
#211 = ORIENTED_EDGE( '', *, *, #258, .F. );
#212 = ORIENTED_EDGE( '', *, *, #243, .F. );
#213 = CARTESIAN_POINT( '', ( 12679.7991686000, -428.000000000000, -1126.65815805000 ) );
#214 = DIRECTION( '', ( 1.06428627165470E-012, 1.00000000000000, 5.96963140343084E-017 ) );
#215 = DIRECTION( '', ( 0.977061236205994, -1.03986014741999E-012, -0.212958542217999 ) );
#216 = ORIENTED_EDGE( '', *, *, #259, .F. );
#217 = ORIENTED_EDGE( '', *, *, #261, .F. );
#218 = CARTESIAN_POINT( '', ( 12711.8481275000, -425.000000000000, -1117.25474188000 ) );
#219 = DIRECTION( '', ( 1.20756728824550E-036, 1.00000000000000, 1.13398565294104E-024 ) );
#220 = DIRECTION( '', ( 1.00000000000000, 0.000000000000000, -1.06488762456000E-012 ) );
#221 = ORIENTED_EDGE( '', *, *, #262, .F. );
#222 = ORIENTED_EDGE( '', *, *, #263, .F. );
#223 = CARTESIAN_POINT( '', ( 12719.7702739000, -480.000000000000, -1114.93032190000 ) );
#224 = DIRECTION( '', ( 1.20756728824550E-036, 1.00000000000000, 1.13398565294104E-024 ) );
#225 = DIRECTION( '', ( 1.00000000000000, 0.000000000000000, -1.06488762456000E-012 ) );
#226 = ORIENTED_EDGE( '', *, *, #255, .F. );
#227 = ORIENTED_EDGE( '', *, *, #264, .T. );
#228 = ORIENTED_EDGE( '', *, *, #263, .T. );
#229 = ORIENTED_EDGE( '', *, *, #265, .F. );
#230 = CARTESIAN_POINT( '', ( 12679.7991686000, -462.500000000000, -1126.65815805000 ) );
#231 = DIRECTION( '', ( -1.06488762455701E-012, -1.00000000000000, -6.52479814105247E-025 ) );
#232 = DIRECTION( '', ( 0.977061236205994, -1.04046041886999E-012, -0.212958542217999 ) );
#233 = ORIENTED_EDGE( '', *, *, #253, .F. );
#234 = ORIENTED_EDGE( '', *, *, #265, .T. );
#235 = ORIENTED_EDGE( '', *, *, #262, .T. );
#236 = ORIENTED_EDGE( '', *, *, #264, .F. );
#237 = CARTESIAN_POINT( '', ( 12679.7991686000, -462.500000000000, -1126.65815805000 ) );
#238 = DIRECTION( '', ( -1.06488762455701E-012, -1.00000000000000, -6.52479814105247E-025 ) );
#239 = DIRECTION( '', ( 0.977061236205994, -1.04046041886999E-012, -0.212958542217999 ) );
#240 = EDGE_CURVE( '', #266, #267, #268, .T. );
#241 = EDGE_CURVE( '', #266, #269, #270, .T. );
#242 = EDGE_CURVE( '', #269, #271, #272, .T. );
#243 = EDGE_CURVE( '', #271, #267, #273, .T. );
#244 = EDGE_CURVE( '', #274, #266, #275, .T. );
#245 = EDGE_CURVE( '', #276, #274, #277, .T. );
#246 = EDGE_CURVE( '', #269, #276, #278, .T. );
#247 = EDGE_CURVE( '', #276, #279, #280, .T. );
#248 = EDGE_CURVE( '', #274, #281, #282, .T. );
#249 = EDGE_CURVE( '', #281, #279, #283, .T. );
#250 = EDGE_CURVE( '', #274, #276, #284, .T. );
#251 = EDGE_CURVE( '', #279, #281, #285, .T. );
#252 = EDGE_CURVE( '', #281, #286, #287, .T. );
#253 = EDGE_CURVE( '', #286, #288, #289, .T. );
#254 = EDGE_CURVE( '', #279, #288, #290, .T. );
#255 = EDGE_CURVE( '', #288, #286, #291, .T. );
#256 = EDGE_CURVE( '', #269, #266, #292, .T. );
#257 = EDGE_CURVE( '', #267, #271, #293, .T. );
#258 = EDGE_CURVE( '', #267, #294, #295, .T. );
#259 = EDGE_CURVE( '', #294, #296, #297, .T. );
#260 = EDGE_CURVE( '', #271, #296, #298, .T. );
#261 = EDGE_CURVE( '', #296, #294, #299, .T. );
#262 = EDGE_CURVE( '', #300, #301, #302, .T. );
#263 = EDGE_CURVE( '', #301, #300, #303, .T. );
#264 = EDGE_CURVE( '', #288, #301, #304, .T. );
#265 = EDGE_CURVE( '', #286, #300, #305, .T. );
#266 = VERTEX_POINT( '', #306 );
#267 = VERTEX_POINT( '', #307 );
#268 = LINE( '', #308, #309 );
#269 = VERTEX_POINT( '', #310 );
#270 = CIRCLE( '', #311, 33.4000000000000 );
#271 = VERTEX_POINT( '', #312 );
#272 = LINE( '', #313, #314 );
#273 = CIRCLE( '', #315, 33.4000000000000 );
#274 = VERTEX_POINT( '', #316 );
#275 = CIRCLE( '', #317, 0.200000000000000 );
#276 = VERTEX_POINT( '', #318 );
#277 = CIRCLE( '', #319, 33.4267949192437 );
#278 = CIRCLE( '', #320, 0.200000000000000 );
#279 = VERTEX_POINT( '', #321 );
#280 = LINE( '', #322, #323 );
#281 = VERTEX_POINT( '', #324 );
#282 = LINE( '', #325, #326 );
#283 = CIRCLE( '', #327, 34.2082903690000 );
#284 = CIRCLE( '', #328, 33.4267949192433 );
#285 = CIRCLE( '', #329, 34.2082903690000 );
#286 = VERTEX_POINT( '', #330 );
#287 = CIRCLE( '', #331, 8.60000000000000 );
#288 = VERTEX_POINT( '', #332 );
#289 = CIRCLE( '', #333, 41.6561088978000 );
#290 = CIRCLE( '', #334, 8.60000000000000 );
#291 = CIRCLE( '', #335, 41.6561088978000 );
#292 = CIRCLE( '', #336, 33.4000000000000 );
#293 = CIRCLE( '', #337, 33.4000000000000 );
#294 = VERTEX_POINT( '', #338 );
#295 = CIRCLE( '', #339, 3.00000000000000 );
#296 = VERTEX_POINT( '', #340 );
#297 = CIRCLE( '', #341, 30.4000000000000 );
#298 = CIRCLE( '', #342, 3.00000000000000 );
#299 = CIRCLE( '', #343, 30.4000000000000 );
#300 = VERTEX_POINT( '', #344 );
#301 = VERTEX_POINT( '', #345 );
#302 = CIRCLE( '', #346, 41.6561088349000 );
#303 = CIRCLE( '', #347, 41.6561088349000 );
#304 = LINE( '', #348, #349 );
#305 = LINE( '', #350, #351 );
#306 = CARTESIAN_POINT( '', ( 12712.4330139000, -464.246410187550, -1133.77097336000 ) );
#307 = CARTESIAN_POINT( '', ( 12712.4330139000, -428.000000000000, -1133.77097336000 ) );
#308 = CARTESIAN_POINT( '', ( 12712.4330139000, -454.650000013000, -1133.77097336000 ) );
#309 = VECTOR( '', #352, 1000.00000000000 );
#310 = CARTESIAN_POINT( '', ( 12647.1653233000, -464.246410187480, -1119.54534274000 ) );
#311 = AXIS2_PLACEMENT_3D( '', #353, #354, #355 );
#312 = CARTESIAN_POINT( '', ( 12647.1653233000, -428.000000000000, -1119.54534274000 ) );
#313 = CARTESIAN_POINT( '', ( 12647.1653233000, -454.650000013000, -1119.54534274000 ) );
#314 = VECTOR( '', #356, 1000.00000000000 );
#315 = AXIS2_PLACEMENT_3D( '', #357, #358, #359 );
#316 = CARTESIAN_POINT( '', ( 12712.4591941793, -464.346410180186, -1133.77667956673 ) );
#317 = AXIS2_PLACEMENT_3D( '', #360, #361, #362 );
#318 = CARTESIAN_POINT( '', ( 12647.1391430207, -464.346410180135, -1119.53963653328 ) );
#319 = AXIS2_PLACEMENT_3D( '', #363, #364, #365 );
#320 = AXIS2_PLACEMENT_3D( '', #366, #367, #368 );
#321 = CARTESIAN_POINT( '', ( 12646.3755741000, -465.700000012000, -1119.37321040000 ) );
#322 = CARTESIAN_POINT( '', ( 12646.7704487000, -465.000000019000, -1119.45927657000 ) );
#323 = VECTOR( '', #369, 1000.00000000000 );
#324 = CARTESIAN_POINT( '', ( 12713.2227631000, -465.700000012000, -1133.94310570000 ) );
#325 = CARTESIAN_POINT( '', ( 12712.8278885000, -465.000000019000, -1133.85703953000 ) );
#326 = VECTOR( '', #370, 1000.00000000000 );
#327 = AXIS2_PLACEMENT_3D( '', #371, #372, #373 );
#328 = AXIS2_PLACEMENT_3D( '', #374, #375, #376 );
#329 = AXIS2_PLACEMENT_3D( '', #377, #378, #379 );
#330 = CARTESIAN_POINT( '', ( 12720.4997378000, -470.000000000000, -1135.52918227000 ) );
#331 = AXIS2_PLACEMENT_3D( '', #380, #381, #382 );
#332 = CARTESIAN_POINT( '', ( 12639.0985993000, -470.000000000000, -1117.78713382000 ) );
#333 = AXIS2_PLACEMENT_3D( '', #383, #384, #385 );
#334 = AXIS2_PLACEMENT_3D( '', #386, #387, #388 );
#335 = AXIS2_PLACEMENT_3D( '', #389, #390, #391 );
#336 = AXIS2_PLACEMENT_3D( '', #392, #393, #394 );
#337 = AXIS2_PLACEMENT_3D( '', #395, #396, #397 );
#338 = CARTESIAN_POINT( '', ( 12709.5018302000, -425.000000000000, -1133.13209773000 ) );
#339 = AXIS2_PLACEMENT_3D( '', #398, #399, #400 );
#340 = CARTESIAN_POINT( '', ( 12650.0965070000, -425.000000000000, -1120.18421837000 ) );
#341 = AXIS2_PLACEMENT_3D( '', #401, #402, #403 );
#342 = AXIS2_PLACEMENT_3D( '', #404, #405, #406 );
#343 = AXIS2_PLACEMENT_3D( '', #407, #408, #409 );
#344 = CARTESIAN_POINT( '', ( 12720.4997378000, -480.000000000000, -1135.52918226000 ) );
#345 = CARTESIAN_POINT( '', ( 12639.0985994000, -480.000000000000, -1117.78713384000 ) );
#346 = AXIS2_PLACEMENT_3D( '', #410, #411, #412 );
#347 = AXIS2_PLACEMENT_3D( '', #413, #414, #415 );
#348 = CARTESIAN_POINT( '', ( 12639.0985994000, -475.000000000000, -1117.78713384000 ) );
#349 = VECTOR( '', #416, 1000.00000000000 );
#350 = CARTESIAN_POINT( '', ( 12720.4997378000, -475.000000000000, -1135.52918226000 ) );
#351 = VECTOR( '', #417, 1000.00000000000 );
#352 = DIRECTION( '', ( 1.03672971050000E-012, 1.00000000000000, 0.000000000000000 ) );
#353 = CARTESIAN_POINT( '', ( 12679.7991686000, -464.246410187515, -1126.65815805000 ) );
#354 = DIRECTION( '', ( 1.06489065890372E-012, 1.00000000000000, -6.61360201779429E-019 ) );
#355 = DIRECTION( '', ( -1.00000000000000, 1.06489065890372E-012, 0.000000000000000 ) );
#356 = DIRECTION( '', ( 1.03672971050000E-012, 1.00000000000000, 0.000000000000000 ) );
#357 = CARTESIAN_POINT( '', ( 12679.7991686000, -428.000000000000, -1126.65815805000 ) );
#358 = DIRECTION( '', ( -1.06488762456000E-012, -1.00000000000000, 0.000000000000000 ) );
#359 = DIRECTION( '', ( 1.00000000000000, -1.06488762456000E-012, 0.000000000000000 ) );
#360 = CARTESIAN_POINT( '', ( 12712.6284261372, -464.246410187549, -1133.81356506550 ) );
#361 = DIRECTION( '', ( -0.212958538613723, -6.22922947604911E-009, -0.977061236991575 ) );
#362 = DIRECTION( '', ( -0.977061236991575, 0.000000000000000, 0.212958538613723 ) );
#363 = CARTESIAN_POINT( '', ( 12679.7991686000, -464.346410187515, -1126.65815805000 ) );
#364 = DIRECTION( '', ( -1.06489369325044E-012, -1.00000000000000, 1.32272105611958E-018 ) );
#365 = DIRECTION( '', ( 1.00000000000000, -1.06489369325044E-012, 0.000000000000000 ) );
#366 = CARTESIAN_POINT( '', ( 12646.9699110630, -464.246410187480, -1119.50275103380 ) );
#367 = DIRECTION( '', ( -0.212958542148597, 7.14823300961328E-009, -0.977061236221121 ) );
#368 = DIRECTION( '', ( -0.977061236221121, 0.000000000000000, 0.212958542148597 ) );
#369 = DIRECTION( '', ( -0.488530618105131, -0.866025403783231, 0.106479271109028 ) );
#370 = DIRECTION( '', ( 0.488530618103185, -0.866025403784328, -0.106479271109040 ) );
#371 = CARTESIAN_POINT( '', ( 12679.7991686000, -465.700000012000, -1126.65815805000 ) );
#372 = DIRECTION( '', ( 1.06488762456000E-012, 1.00000000000000, 0.000000000000000 ) );
#373 = DIRECTION( '', ( 1.00000000000000, -1.06488762456000E-012, 0.000000000000000 ) );
#374 = CARTESIAN_POINT( '', ( 12679.7991686000, -464.346410187514, -1126.65815805000 ) );
#375 = DIRECTION( '', ( -1.06489369325044E-012, -1.00000000000000, 1.32272105611958E-018 ) );
#376 = DIRECTION( '', ( 1.00000000000000, -1.06489369325044E-012, 0.000000000000000 ) );
#377 = CARTESIAN_POINT( '', ( 12679.7991686000, -465.700000012000, -1126.65815805000 ) );
#378 = DIRECTION( '', ( 1.06488762456000E-012, 1.00000000000000, 0.000000000000000 ) );
#379 = DIRECTION( '', ( 1.00000000000000, -1.06488762456000E-012, 0.000000000000000 ) );
#380 = CARTESIAN_POINT( '', ( 12720.4997378000, -461.400000000000, -1135.52918226000 ) );
#381 = DIRECTION( '', ( 0.212958542217999, -2.26776916151999E-013, 0.977061236205994 ) );
#382 = DIRECTION( '', ( 0.977061236205994, 4.94278963107294E-014, -0.212958542217999 ) );
#383 = CARTESIAN_POINT( '', ( 12679.7991686000, -470.000000000000, -1126.65815805000 ) );
#384 = DIRECTION( '', ( 1.06488762456000E-012, 1.00000000000000, 0.000000000000000 ) );
#385 = DIRECTION( '', ( 1.00000000000000, -1.06488762456000E-012, 0.000000000000000 ) );
#386 = CARTESIAN_POINT( '', ( 12639.0985994000, -461.400000000000, -1117.78713384000 ) );
#387 = DIRECTION( '', ( -0.212958542217999, 2.26776916151999E-013, -0.977061236205994 ) );
#388 = DIRECTION( '', ( 0.977061236205994, 4.94278963107294E-014, -0.212958542217999 ) );
#389 = CARTESIAN_POINT( '', ( 12679.7991686000, -470.000000000000, -1126.65815805000 ) );
#390 = DIRECTION( '', ( 1.06488762456000E-012, 1.00000000000000, 0.000000000000000 ) );
#391 = DIRECTION( '', ( 1.00000000000000, -1.06488762456000E-012, 0.000000000000000 ) );
#392 = CARTESIAN_POINT( '', ( 12679.7991686000, -464.246410187514, -1126.65815805000 ) );
#393 = DIRECTION( '', ( 1.06489065890372E-012, 1.00000000000000, -6.61360201779429E-019 ) );
#394 = DIRECTION( '', ( -1.00000000000000, 1.06489065890372E-012, 0.000000000000000 ) );
#395 = CARTESIAN_POINT( '', ( 12679.7991686000, -428.000000000000, -1126.65815805000 ) );
#396 = DIRECTION( '', ( -1.06488762456000E-012, -1.00000000000000, 0.000000000000000 ) );
#397 = DIRECTION( '', ( 1.00000000000000, -1.06488762456000E-012, 0.000000000000000 ) );
#398 = CARTESIAN_POINT( '', ( 12709.5018302000, -428.000000000000, -1133.13209773000 ) );
#399 = DIRECTION( '', ( 0.212958542217999, -2.26707179867999E-013, 0.977061236205994 ) );
#400 = DIRECTION( '', ( 0.977061236205994, 4.94126967133756E-014, -0.212958542217999 ) );
#401 = CARTESIAN_POINT( '', ( 12679.7991686000, -425.000000000000, -1126.65815805000 ) );
#402 = DIRECTION( '', ( -1.06406747438000E-012, -1.00000000000000, -1.07384981779000E-016 ) );
#403 = DIRECTION( '', ( 1.00000000000000, -1.06406747438000E-012, -1.14264866347923E-028 ) );
#404 = CARTESIAN_POINT( '', ( 12650.0965070000, -428.000000000000, -1120.18421837000 ) );
#405 = DIRECTION( '', ( -0.212958542217999, 2.26707179867999E-013, -0.977061236205994 ) );
#406 = DIRECTION( '', ( 0.977061236205994, 4.94126967133756E-014, -0.212958542217999 ) );
#407 = CARTESIAN_POINT( '', ( 12679.7991686000, -425.000000000000, -1126.65815805000 ) );
#408 = DIRECTION( '', ( -1.06406747438000E-012, -1.00000000000000, -1.07384981780000E-016 ) );
#409 = DIRECTION( '', ( 1.00000000000000, -1.06406747438000E-012, -1.14264866348987E-028 ) );
#410 = CARTESIAN_POINT( '', ( 12679.7991686000, -480.000000000000, -1126.65815805000 ) );
#411 = DIRECTION( '', ( 1.06488762456000E-012, 1.00000000000000, 0.000000000000000 ) );
#412 = DIRECTION( '', ( 1.00000000000000, -1.06488762456000E-012, 0.000000000000000 ) );
#413 = CARTESIAN_POINT( '', ( 12679.7991686000, -480.000000000000, -1126.65815805000 ) );
#414 = DIRECTION( '', ( 1.06488762456000E-012, 1.00000000000000, 0.000000000000000 ) );
#415 = DIRECTION( '', ( 1.00000000000000, -1.06488762456000E-012, 0.000000000000000 ) );
#416 = DIRECTION( '', ( -1.09139364213000E-012, -1.00000000000000, -0.000000000000000 ) );
#417 = DIRECTION( '', ( -1.09139364213000E-012, -1.00000000000000, -0.000000000000000 ) );
ENDSEC;
END-ISO-10303-21;
