ISO-10303-21;
HEADER;
/* Generated by software containing ST-Developer
 * from STEP Tools, Inc. (www.steptools.com) 
 */
/* OPTION: using custom schema-name function */

FILE_DESCRIPTION(
/* description */ (''),
/* implementation_level */ '2;1');

FILE_NAME(
/* name */ '02_MI_11_040_indA.stp',
/* time_stamp */ '2021-09-02T15:14:37+02:00',
/* author */ (''),
/* organization */ (''),
/* preprocessor_version */ 'ST-DEVELOPER v16',
/* originating_system */ 'SIEMENS PLM Software NX 11.0',
/* authorisation */ '');

FILE_SCHEMA (('AUTOMOTIVE_DESIGN { 1 0 10303 214 3 1 1 1 }'));
ENDSEC;

DATA;
#10=PROPERTY_DEFINITION_REPRESENTATION(#14,#12);
#11=PROPERTY_DEFINITION_REPRESENTATION(#15,#13);
#12=REPRESENTATION('',(#16),#483);
#13=REPRESENTATION('',(#17),#483);
#14=PROPERTY_DEFINITION('pmi validation property','',#21);
#15=PROPERTY_DEFINITION('pmi validation property','',#21);
#16=VALUE_REPRESENTATION_ITEM('number of annotations',COUNT_MEASURE(0.));
#17=VALUE_REPRESENTATION_ITEM('number of views',COUNT_MEASURE(0.));
#18=SHAPE_REPRESENTATION_RELATIONSHIP('None',
'relationship between xavi2E782A6Fpjnq-None and xavi2E782A6Fpjnq-None',
#30,#19);
#19=ADVANCED_BREP_SHAPE_REPRESENTATION('xavi2E782A6Fpjnq-None',(#40),#483);
#20=SHAPE_DEFINITION_REPRESENTATION(#21,#30);
#21=PRODUCT_DEFINITION_SHAPE('','',#22);
#22=PRODUCT_DEFINITION(' ','',#24,#23);
#23=PRODUCT_DEFINITION_CONTEXT('part definition',#29,'design');
#24=PRODUCT_DEFINITION_FORMATION_WITH_SPECIFIED_SOURCE(' ',' ',#26,
 .NOT_KNOWN.);
#25=PRODUCT_RELATED_PRODUCT_CATEGORY('part','',(#26));
#26=PRODUCT('xavi2E782A6Fpjnq','xavi2E782A6Fpjnq',' ',(#27));
#27=PRODUCT_CONTEXT(' ',#29,'mechanical');
#28=APPLICATION_PROTOCOL_DEFINITION('international standard',
'automotive_design',2010,#29);
#29=APPLICATION_CONTEXT(
'core data for automotive mechanical design processes');
#30=SHAPE_REPRESENTATION('xavi2E782A6Fpjnq-None',(#294),#483);
#31=PRESENTATION_LAYER_ASSIGNMENT('1','Layer 1',(#40));
#32=STYLED_ITEM('',(#33),#40);
#33=PRESENTATION_STYLE_ASSIGNMENT((#34));
#34=SURFACE_STYLE_USAGE(.BOTH.,#35);
#35=SURFACE_SIDE_STYLE('',(#36));
#36=SURFACE_STYLE_FILL_AREA(#37);
#37=FILL_AREA_STYLE('',(#38));
#38=FILL_AREA_STYLE_COLOUR('',#39);
#39=COLOUR_RGB('Medium Steel',0.596063172350652,0.666666666666667,0.686259250782025);
#40=MANIFOLD_SOLID_BREP('',#41);
#41=CLOSED_SHELL('',(#86,#87,#88,#89,#90,#91,#92,#93,#94,#95,#96,#97,#98,
#99,#100,#101));
#42=CONICAL_SURFACE('',#320,1.5,45.);
#43=CONICAL_SURFACE('',#321,1.5,45.);
#44=CONICAL_SURFACE('',#325,1.5,45.);
#45=CONICAL_SURFACE('',#326,1.5,45.);
#46=CYLINDRICAL_SURFACE('',#313,2.);
#47=CYLINDRICAL_SURFACE('',#314,2.);
#48=CYLINDRICAL_SURFACE('',#315,2.);
#49=CYLINDRICAL_SURFACE('',#316,2.);
#50=CYLINDRICAL_SURFACE('',#319,1.25);
#51=CYLINDRICAL_SURFACE('',#324,1.25);
#52=FACE_BOUND('',#120,.T.);
#53=FACE_BOUND('',#121,.T.);
#54=FACE_BOUND('',#122,.T.);
#55=FACE_BOUND('',#123,.T.);
#56=FACE_BOUND('',#124,.T.);
#57=FACE_BOUND('',#125,.T.);
#58=FACE_BOUND('',#130,.T.);
#59=FACE_BOUND('',#131,.T.);
#60=FACE_BOUND('',#132,.T.);
#61=FACE_BOUND('',#133,.T.);
#62=FACE_BOUND('',#134,.T.);
#63=FACE_BOUND('',#135,.T.);
#64=FACE_BOUND('',#136,.T.);
#65=FACE_BOUND('',#137,.T.);
#66=FACE_BOUND('',#138,.T.);
#67=FACE_BOUND('',#139,.T.);
#68=FACE_BOUND('',#140,.T.);
#69=FACE_BOUND('',#141,.T.);
#70=CIRCLE('',#299,1.5);
#71=CIRCLE('',#300,1.5);
#72=CIRCLE('',#301,2.);
#73=CIRCLE('',#302,2.);
#74=CIRCLE('',#303,2.);
#75=CIRCLE('',#304,2.);
#76=CIRCLE('',#306,1.5);
#77=CIRCLE('',#307,1.5);
#78=CIRCLE('',#308,2.);
#79=CIRCLE('',#309,2.);
#80=CIRCLE('',#310,2.);
#81=CIRCLE('',#311,2.);
#82=CIRCLE('',#317,1.25);
#83=CIRCLE('',#318,1.25);
#84=CIRCLE('',#322,1.25);
#85=CIRCLE('',#323,1.25);
#86=ADVANCED_FACE('',(#108),#102,.F.);
#87=ADVANCED_FACE('',(#109),#103,.F.);
#88=ADVANCED_FACE('',(#110),#104,.F.);
#89=ADVANCED_FACE('',(#111),#105,.F.);
#90=ADVANCED_FACE('',(#52,#53,#54),#106,.T.);
#91=ADVANCED_FACE('',(#55,#56,#57),#107,.F.);
#92=ADVANCED_FACE('',(#112),#46,.T.);
#93=ADVANCED_FACE('',(#113),#47,.T.);
#94=ADVANCED_FACE('',(#114),#48,.T.);
#95=ADVANCED_FACE('',(#115),#49,.T.);
#96=ADVANCED_FACE('',(#58,#59),#50,.F.);
#97=ADVANCED_FACE('',(#60,#61),#42,.F.);
#98=ADVANCED_FACE('',(#62,#63),#43,.F.);
#99=ADVANCED_FACE('',(#64,#65),#51,.F.);
#100=ADVANCED_FACE('',(#66,#67),#44,.F.);
#101=ADVANCED_FACE('',(#68,#69),#45,.F.);
#102=PLANE('',#295);
#103=PLANE('',#296);
#104=PLANE('',#297);
#105=PLANE('',#298);
#106=PLANE('',#305);
#107=PLANE('',#312);
#108=FACE_OUTER_BOUND('',#116,.T.);
#109=FACE_OUTER_BOUND('',#117,.T.);
#110=FACE_OUTER_BOUND('',#118,.T.);
#111=FACE_OUTER_BOUND('',#119,.T.);
#112=FACE_OUTER_BOUND('',#126,.T.);
#113=FACE_OUTER_BOUND('',#127,.T.);
#114=FACE_OUTER_BOUND('',#128,.T.);
#115=FACE_OUTER_BOUND('',#129,.T.);
#116=EDGE_LOOP('',(#142,#143,#144,#145));
#117=EDGE_LOOP('',(#146,#147,#148,#149));
#118=EDGE_LOOP('',(#150,#151,#152,#153));
#119=EDGE_LOOP('',(#154,#155,#156,#157));
#120=EDGE_LOOP('',(#158));
#121=EDGE_LOOP('',(#159));
#122=EDGE_LOOP('',(#160,#161,#162,#163,#164,#165,#166,#167));
#123=EDGE_LOOP('',(#168));
#124=EDGE_LOOP('',(#169));
#125=EDGE_LOOP('',(#170,#171,#172,#173,#174,#175,#176,#177));
#126=EDGE_LOOP('',(#178,#179,#180,#181));
#127=EDGE_LOOP('',(#182,#183,#184,#185));
#128=EDGE_LOOP('',(#186,#187,#188,#189));
#129=EDGE_LOOP('',(#190,#191,#192,#193));
#130=EDGE_LOOP('',(#194));
#131=EDGE_LOOP('',(#195));
#132=EDGE_LOOP('',(#196));
#133=EDGE_LOOP('',(#197));
#134=EDGE_LOOP('',(#198));
#135=EDGE_LOOP('',(#199));
#136=EDGE_LOOP('',(#200));
#137=EDGE_LOOP('',(#201));
#138=EDGE_LOOP('',(#202));
#139=EDGE_LOOP('',(#203));
#140=EDGE_LOOP('',(#204));
#141=EDGE_LOOP('',(#205));
#142=ORIENTED_EDGE('',*,*,#230,.T.);
#143=ORIENTED_EDGE('',*,*,#231,.T.);
#144=ORIENTED_EDGE('',*,*,#232,.F.);
#145=ORIENTED_EDGE('',*,*,#233,.T.);
#146=ORIENTED_EDGE('',*,*,#234,.T.);
#147=ORIENTED_EDGE('',*,*,#235,.T.);
#148=ORIENTED_EDGE('',*,*,#236,.F.);
#149=ORIENTED_EDGE('',*,*,#237,.T.);
#150=ORIENTED_EDGE('',*,*,#238,.F.);
#151=ORIENTED_EDGE('',*,*,#239,.T.);
#152=ORIENTED_EDGE('',*,*,#240,.T.);
#153=ORIENTED_EDGE('',*,*,#241,.T.);
#154=ORIENTED_EDGE('',*,*,#242,.F.);
#155=ORIENTED_EDGE('',*,*,#243,.T.);
#156=ORIENTED_EDGE('',*,*,#244,.T.);
#157=ORIENTED_EDGE('',*,*,#245,.T.);
#158=ORIENTED_EDGE('',*,*,#246,.T.);
#159=ORIENTED_EDGE('',*,*,#247,.T.);
#160=ORIENTED_EDGE('',*,*,#236,.T.);
#161=ORIENTED_EDGE('',*,*,#248,.T.);
#162=ORIENTED_EDGE('',*,*,#238,.T.);
#163=ORIENTED_EDGE('',*,*,#249,.T.);
#164=ORIENTED_EDGE('',*,*,#242,.T.);
#165=ORIENTED_EDGE('',*,*,#250,.T.);
#166=ORIENTED_EDGE('',*,*,#232,.T.);
#167=ORIENTED_EDGE('',*,*,#251,.T.);
#168=ORIENTED_EDGE('',*,*,#252,.T.);
#169=ORIENTED_EDGE('',*,*,#253,.T.);
#170=ORIENTED_EDGE('',*,*,#240,.F.);
#171=ORIENTED_EDGE('',*,*,#254,.T.);
#172=ORIENTED_EDGE('',*,*,#234,.F.);
#173=ORIENTED_EDGE('',*,*,#255,.T.);
#174=ORIENTED_EDGE('',*,*,#230,.F.);
#175=ORIENTED_EDGE('',*,*,#256,.T.);
#176=ORIENTED_EDGE('',*,*,#244,.F.);
#177=ORIENTED_EDGE('',*,*,#257,.T.);
#178=ORIENTED_EDGE('',*,*,#248,.F.);
#179=ORIENTED_EDGE('',*,*,#235,.F.);
#180=ORIENTED_EDGE('',*,*,#254,.F.);
#181=ORIENTED_EDGE('',*,*,#239,.F.);
#182=ORIENTED_EDGE('',*,*,#249,.F.);
#183=ORIENTED_EDGE('',*,*,#241,.F.);
#184=ORIENTED_EDGE('',*,*,#257,.F.);
#185=ORIENTED_EDGE('',*,*,#243,.F.);
#186=ORIENTED_EDGE('',*,*,#251,.F.);
#187=ORIENTED_EDGE('',*,*,#231,.F.);
#188=ORIENTED_EDGE('',*,*,#255,.F.);
#189=ORIENTED_EDGE('',*,*,#237,.F.);
#190=ORIENTED_EDGE('',*,*,#250,.F.);
#191=ORIENTED_EDGE('',*,*,#245,.F.);
#192=ORIENTED_EDGE('',*,*,#256,.F.);
#193=ORIENTED_EDGE('',*,*,#233,.F.);
#194=ORIENTED_EDGE('',*,*,#258,.T.);
#195=ORIENTED_EDGE('',*,*,#259,.T.);
#196=ORIENTED_EDGE('',*,*,#259,.F.);
#197=ORIENTED_EDGE('',*,*,#247,.F.);
#198=ORIENTED_EDGE('',*,*,#258,.F.);
#199=ORIENTED_EDGE('',*,*,#253,.F.);
#200=ORIENTED_EDGE('',*,*,#260,.T.);
#201=ORIENTED_EDGE('',*,*,#261,.T.);
#202=ORIENTED_EDGE('',*,*,#261,.F.);
#203=ORIENTED_EDGE('',*,*,#246,.F.);
#204=ORIENTED_EDGE('',*,*,#260,.F.);
#205=ORIENTED_EDGE('',*,*,#252,.F.);
#206=VERTEX_POINT('',#411);
#207=VERTEX_POINT('',#412);
#208=VERTEX_POINT('',#414);
#209=VERTEX_POINT('',#416);
#210=VERTEX_POINT('',#420);
#211=VERTEX_POINT('',#421);
#212=VERTEX_POINT('',#423);
#213=VERTEX_POINT('',#425);
#214=VERTEX_POINT('',#429);
#215=VERTEX_POINT('',#430);
#216=VERTEX_POINT('',#432);
#217=VERTEX_POINT('',#434);
#218=VERTEX_POINT('',#438);
#219=VERTEX_POINT('',#439);
#220=VERTEX_POINT('',#441);
#221=VERTEX_POINT('',#443);
#222=VERTEX_POINT('',#447);
#223=VERTEX_POINT('',#449);
#224=VERTEX_POINT('',#456);
#225=VERTEX_POINT('',#458);
#226=VERTEX_POINT('',#469);
#227=VERTEX_POINT('',#471);
#228=VERTEX_POINT('',#476);
#229=VERTEX_POINT('',#478);
#230=EDGE_CURVE('',#206,#207,#262,.T.);
#231=EDGE_CURVE('',#207,#208,#263,.T.);
#232=EDGE_CURVE('',#209,#208,#264,.T.);
#233=EDGE_CURVE('',#209,#206,#265,.T.);
#234=EDGE_CURVE('',#210,#211,#266,.T.);
#235=EDGE_CURVE('',#211,#212,#267,.T.);
#236=EDGE_CURVE('',#213,#212,#268,.T.);
#237=EDGE_CURVE('',#213,#210,#269,.T.);
#238=EDGE_CURVE('',#214,#215,#270,.T.);
#239=EDGE_CURVE('',#214,#216,#271,.T.);
#240=EDGE_CURVE('',#216,#217,#272,.T.);
#241=EDGE_CURVE('',#217,#215,#273,.T.);
#242=EDGE_CURVE('',#218,#219,#274,.T.);
#243=EDGE_CURVE('',#218,#220,#275,.T.);
#244=EDGE_CURVE('',#220,#221,#276,.T.);
#245=EDGE_CURVE('',#221,#219,#277,.T.);
#246=EDGE_CURVE('',#222,#222,#70,.T.);
#247=EDGE_CURVE('',#223,#223,#71,.T.);
#248=EDGE_CURVE('',#212,#214,#72,.T.);
#249=EDGE_CURVE('',#215,#218,#73,.T.);
#250=EDGE_CURVE('',#219,#209,#74,.T.);
#251=EDGE_CURVE('',#208,#213,#75,.T.);
#252=EDGE_CURVE('',#224,#224,#76,.T.);
#253=EDGE_CURVE('',#225,#225,#77,.T.);
#254=EDGE_CURVE('',#216,#211,#78,.T.);
#255=EDGE_CURVE('',#210,#207,#79,.T.);
#256=EDGE_CURVE('',#206,#221,#80,.T.);
#257=EDGE_CURVE('',#220,#217,#81,.T.);
#258=EDGE_CURVE('',#226,#226,#82,.T.);
#259=EDGE_CURVE('',#227,#227,#83,.T.);
#260=EDGE_CURVE('',#228,#228,#84,.T.);
#261=EDGE_CURVE('',#229,#229,#85,.T.);
#262=LINE('',#410,#278);
#263=LINE('',#413,#279);
#264=LINE('',#415,#280);
#265=LINE('',#417,#281);
#266=LINE('',#419,#282);
#267=LINE('',#422,#283);
#268=LINE('',#424,#284);
#269=LINE('',#426,#285);
#270=LINE('',#428,#286);
#271=LINE('',#431,#287);
#272=LINE('',#433,#288);
#273=LINE('',#435,#289);
#274=LINE('',#437,#290);
#275=LINE('',#440,#291);
#276=LINE('',#442,#292);
#277=LINE('',#444,#293);
#278=VECTOR('',#329,1.);
#279=VECTOR('',#330,1.);
#280=VECTOR('',#331,1.);
#281=VECTOR('',#332,1.);
#282=VECTOR('',#335,1.);
#283=VECTOR('',#336,1.);
#284=VECTOR('',#337,1.);
#285=VECTOR('',#338,1.);
#286=VECTOR('',#341,1.);
#287=VECTOR('',#342,1.);
#288=VECTOR('',#343,1.);
#289=VECTOR('',#344,1.);
#290=VECTOR('',#347,1.);
#291=VECTOR('',#348,1.);
#292=VECTOR('',#349,1.);
#293=VECTOR('',#350,1.);
#294=AXIS2_PLACEMENT_3D('',#409,#327,#328);
#295=AXIS2_PLACEMENT_3D('',#418,#333,#334);
#296=AXIS2_PLACEMENT_3D('',#427,#339,#340);
#297=AXIS2_PLACEMENT_3D('',#436,#345,#346);
#298=AXIS2_PLACEMENT_3D('',#445,#351,#352);
#299=AXIS2_PLACEMENT_3D('',#446,#353,#354);
#300=AXIS2_PLACEMENT_3D('',#448,#355,#356);
#301=AXIS2_PLACEMENT_3D('',#450,#357,#358);
#302=AXIS2_PLACEMENT_3D('',#451,#359,#360);
#303=AXIS2_PLACEMENT_3D('',#452,#361,#362);
#304=AXIS2_PLACEMENT_3D('',#453,#363,#364);
#305=AXIS2_PLACEMENT_3D('',#454,#365,#366);
#306=AXIS2_PLACEMENT_3D('',#455,#367,#368);
#307=AXIS2_PLACEMENT_3D('',#457,#369,#370);
#308=AXIS2_PLACEMENT_3D('',#459,#371,#372);
#309=AXIS2_PLACEMENT_3D('',#460,#373,#374);
#310=AXIS2_PLACEMENT_3D('',#461,#375,#376);
#311=AXIS2_PLACEMENT_3D('',#462,#377,#378);
#312=AXIS2_PLACEMENT_3D('',#463,#379,#380);
#313=AXIS2_PLACEMENT_3D('',#464,#381,#382);
#314=AXIS2_PLACEMENT_3D('',#465,#383,#384);
#315=AXIS2_PLACEMENT_3D('',#466,#385,#386);
#316=AXIS2_PLACEMENT_3D('',#467,#387,#388);
#317=AXIS2_PLACEMENT_3D('',#468,#389,#390);
#318=AXIS2_PLACEMENT_3D('',#470,#391,#392);
#319=AXIS2_PLACEMENT_3D('',#472,#393,#394);
#320=AXIS2_PLACEMENT_3D('',#473,#395,#396);
#321=AXIS2_PLACEMENT_3D('',#474,#397,#398);
#322=AXIS2_PLACEMENT_3D('',#475,#399,#400);
#323=AXIS2_PLACEMENT_3D('',#477,#401,#402);
#324=AXIS2_PLACEMENT_3D('',#479,#403,#404);
#325=AXIS2_PLACEMENT_3D('',#480,#405,#406);
#326=AXIS2_PLACEMENT_3D('',#481,#407,#408);
#327=DIRECTION('',(0.,0.,1.));
#328=DIRECTION('',(1.,0.,0.));
#329=DIRECTION('',(0.,0.,-1.));
#330=DIRECTION('',(0.,-1.,0.));
#331=DIRECTION('',(0.,0.,-1.));
#332=DIRECTION('',(0.,1.,0.));
#333=DIRECTION('',(1.,0.,0.));
#334=DIRECTION('',(0.,0.,-1.));
#335=DIRECTION('',(1.,0.,0.));
#336=DIRECTION('',(0.,-1.,0.));
#337=DIRECTION('',(1.,0.,0.));
#338=DIRECTION('',(0.,1.,0.));
#339=DIRECTION('',(0.,0.,1.));
#340=DIRECTION('',(1.,0.,0.));
#341=DIRECTION('',(0.,0.,1.));
#342=DIRECTION('',(0.,1.,0.));
#343=DIRECTION('',(0.,0.,1.));
#344=DIRECTION('',(0.,-1.,0.));
#345=DIRECTION('',(-1.,0.,0.));
#346=DIRECTION('',(0.,0.,1.));
#347=DIRECTION('',(-1.,0.,0.));
#348=DIRECTION('',(0.,1.,0.));
#349=DIRECTION('',(-1.,0.,0.));
#350=DIRECTION('',(0.,-1.,0.));
#351=DIRECTION('',(0.,0.,-1.));
#352=DIRECTION('',(-1.,0.,0.));
#353=DIRECTION('',(0.,1.,0.));
#354=DIRECTION('',(0.,0.,-1.));
#355=DIRECTION('',(0.,1.,0.));
#356=DIRECTION('',(0.,0.,-1.));
#357=DIRECTION('',(0.,-1.,0.));
#358=DIRECTION('',(0.,0.,-1.));
#359=DIRECTION('',(0.,-1.,0.));
#360=DIRECTION('',(0.,0.,-1.));
#361=DIRECTION('',(0.,-1.,0.));
#362=DIRECTION('',(0.,0.,-1.));
#363=DIRECTION('',(0.,-1.,0.));
#364=DIRECTION('',(0.,0.,-1.));
#365=DIRECTION('',(0.,-1.,0.));
#366=DIRECTION('',(0.,0.,-1.));
#367=DIRECTION('',(0.,-1.,0.));
#368=DIRECTION('',(0.,0.,-1.));
#369=DIRECTION('',(0.,-1.,0.));
#370=DIRECTION('',(0.,0.,-1.));
#371=DIRECTION('',(0.,1.,0.));
#372=DIRECTION('',(0.,0.,-1.));
#373=DIRECTION('',(0.,1.,0.));
#374=DIRECTION('',(0.,0.,-1.));
#375=DIRECTION('',(0.,1.,0.));
#376=DIRECTION('',(0.,0.,-1.));
#377=DIRECTION('',(0.,1.,0.));
#378=DIRECTION('',(0.,0.,-1.));
#379=DIRECTION('',(0.,-1.,0.));
#380=DIRECTION('',(0.,0.,-1.));
#381=DIRECTION('',(0.,1.,0.));
#382=DIRECTION('',(0.,0.,1.));
#383=DIRECTION('',(0.,1.,0.));
#384=DIRECTION('',(0.,0.,1.));
#385=DIRECTION('',(0.,1.,0.));
#386=DIRECTION('',(0.,0.,1.));
#387=DIRECTION('',(0.,1.,0.));
#388=DIRECTION('',(0.,0.,1.));
#389=DIRECTION('',(0.,1.,0.));
#390=DIRECTION('',(0.,0.,-1.));
#391=DIRECTION('',(0.,-1.,0.));
#392=DIRECTION('',(0.,0.,-1.));
#393=DIRECTION('',(0.,1.,0.));
#394=DIRECTION('',(0.,0.,1.));
#395=DIRECTION('',(0.,-1.,0.));
#396=DIRECTION('',(0.,-8.66062644022371E-18,-1.));
#397=DIRECTION('',(0.,1.,0.));
#398=DIRECTION('',(0.,0.,1.));
#399=DIRECTION('',(0.,1.,0.));
#400=DIRECTION('',(0.,0.,-1.));
#401=DIRECTION('',(0.,-1.,0.));
#402=DIRECTION('',(0.,0.,-1.));
#403=DIRECTION('',(0.,1.,0.));
#404=DIRECTION('',(0.,0.,1.));
#405=DIRECTION('',(0.,-1.,0.));
#406=DIRECTION('',(0.,-8.66062644022371E-18,-1.));
#407=DIRECTION('',(0.,1.,0.));
#408=DIRECTION('',(0.,0.,1.));
#409=CARTESIAN_POINT('',(0.,0.,0.));
#410=CARTESIAN_POINT('',(-45.,0.,25.));
#411=CARTESIAN_POINT('',(-45.,0.,23.));
#412=CARTESIAN_POINT('',(-45.,0.,-23.));
#413=CARTESIAN_POINT('',(-45.,-10.,-23.));
#414=CARTESIAN_POINT('',(-45.,-10.,-23.));
#415=CARTESIAN_POINT('',(-45.,-10.,25.));
#416=CARTESIAN_POINT('',(-45.,-10.,23.));
#417=CARTESIAN_POINT('',(-45.,-10.,23.));
#418=CARTESIAN_POINT('',(-45.,-10.,25.));
#419=CARTESIAN_POINT('',(-45.,0.,-25.));
#420=CARTESIAN_POINT('',(-43.,0.,-25.));
#421=CARTESIAN_POINT('',(43.,0.,-25.));
#422=CARTESIAN_POINT('',(43.,-10.,-25.));
#423=CARTESIAN_POINT('',(43.,-10.,-25.));
#424=CARTESIAN_POINT('',(-45.,-10.,-25.));
#425=CARTESIAN_POINT('',(-43.,-10.,-25.));
#426=CARTESIAN_POINT('',(-43.,-10.,-25.));
#427=CARTESIAN_POINT('',(-45.,-10.,-25.));
#428=CARTESIAN_POINT('',(45.,-10.,-25.));
#429=CARTESIAN_POINT('',(45.,-10.,-23.));
#430=CARTESIAN_POINT('',(45.,-10.,23.));
#431=CARTESIAN_POINT('',(45.,-10.,-23.));
#432=CARTESIAN_POINT('',(45.,0.,-23.));
#433=CARTESIAN_POINT('',(45.,0.,-25.));
#434=CARTESIAN_POINT('',(45.,0.,23.));
#435=CARTESIAN_POINT('',(45.,-10.,23.));
#436=CARTESIAN_POINT('',(45.,-10.,-25.));
#437=CARTESIAN_POINT('',(45.,-10.,25.));
#438=CARTESIAN_POINT('',(43.,-10.,25.));
#439=CARTESIAN_POINT('',(-43.,-10.,25.));
#440=CARTESIAN_POINT('',(43.,-10.,25.));
#441=CARTESIAN_POINT('',(43.,0.,25.));
#442=CARTESIAN_POINT('',(45.,0.,25.));
#443=CARTESIAN_POINT('',(-43.,0.,25.));
#444=CARTESIAN_POINT('',(-43.,-10.,25.));
#445=CARTESIAN_POINT('',(45.,-10.,25.));
#446=CARTESIAN_POINT('',(20.,-10.,0.));
#447=CARTESIAN_POINT('',(20.,-10.,-1.5));
#448=CARTESIAN_POINT('',(-20.,-10.,3.5527136788005E-15));
#449=CARTESIAN_POINT('',(-20.,-10.,-1.5));
#450=CARTESIAN_POINT('',(43.,-10.,-23.));
#451=CARTESIAN_POINT('',(43.,-10.,23.));
#452=CARTESIAN_POINT('',(-43.,-10.,23.));
#453=CARTESIAN_POINT('',(-43.,-10.,-23.));
#454=CARTESIAN_POINT('',(0.,-10.,0.));
#455=CARTESIAN_POINT('',(20.,0.,0.));
#456=CARTESIAN_POINT('',(20.,0.,-1.5));
#457=CARTESIAN_POINT('',(-20.,0.,3.5527136788005E-15));
#458=CARTESIAN_POINT('',(-20.,0.,-1.5));
#459=CARTESIAN_POINT('',(43.,0.,-23.));
#460=CARTESIAN_POINT('',(-43.,0.,-23.));
#461=CARTESIAN_POINT('',(-43.,0.,23.));
#462=CARTESIAN_POINT('',(43.,0.,23.));
#463=CARTESIAN_POINT('',(0.,0.,0.));
#464=CARTESIAN_POINT('',(43.,-10.,-23.));
#465=CARTESIAN_POINT('',(43.,-10.,23.));
#466=CARTESIAN_POINT('',(-43.,-10.,-23.));
#467=CARTESIAN_POINT('',(-43.,-10.,23.));
#468=CARTESIAN_POINT('',(-20.,-0.25,3.5527136788005E-15));
#469=CARTESIAN_POINT('',(-20.,-0.25,-1.25));
#470=CARTESIAN_POINT('',(-20.,-9.75,3.5527136788005E-15));
#471=CARTESIAN_POINT('',(-20.,-9.75,-1.25));
#472=CARTESIAN_POINT('',(-20.,-10.,3.5527136788005E-15));
#473=CARTESIAN_POINT('',(-20.,-10.,3.5527136788005E-15));
#474=CARTESIAN_POINT('',(-20.,0.,3.5527136788005E-15));
#475=CARTESIAN_POINT('',(20.,-0.25,0.));
#476=CARTESIAN_POINT('',(20.,-0.25,-1.25));
#477=CARTESIAN_POINT('',(20.,-9.75,0.));
#478=CARTESIAN_POINT('',(20.,-9.75,-1.25));
#479=CARTESIAN_POINT('',(20.,-10.,0.));
#480=CARTESIAN_POINT('',(20.,-10.,0.));
#481=CARTESIAN_POINT('',(20.,0.,0.));
#482=MECHANICAL_DESIGN_GEOMETRIC_PRESENTATION_REPRESENTATION('',(#32),#483);
#483=(
GEOMETRIC_REPRESENTATION_CONTEXT(3)
GLOBAL_UNCERTAINTY_ASSIGNED_CONTEXT((#484))
GLOBAL_UNIT_ASSIGNED_CONTEXT((#490,#486,#485))
REPRESENTATION_CONTEXT('02_MI_11_040_indA','TOP_LEVEL_ASSEMBLY_PART')
);
#484=UNCERTAINTY_MEASURE_WITH_UNIT(LENGTH_MEASURE(2.E-5),#490,
'DISTANCE_ACCURACY_VALUE','Maximum Tolerance applied to model');
#485=(
NAMED_UNIT(*)
SI_UNIT($,.STERADIAN.)
SOLID_ANGLE_UNIT()
);
#486=(
CONVERSION_BASED_UNIT('DEGREE',#488)
NAMED_UNIT(#487)
PLANE_ANGLE_UNIT()
);
#487=DIMENSIONAL_EXPONENTS(0.,0.,0.,0.,0.,0.,0.);
#488=PLANE_ANGLE_MEASURE_WITH_UNIT(PLANE_ANGLE_MEASURE(0.0174532925),#489);
#489=(
NAMED_UNIT(*)
PLANE_ANGLE_UNIT()
SI_UNIT($,.RADIAN.)
);
#490=(
LENGTH_UNIT()
NAMED_UNIT(*)
SI_UNIT(.MILLI.,.METRE.)
);
ENDSEC;
END-ISO-10303-21;
