ISO-10303-21;
HEADER;
FILE_DESCRIPTION( ( 'STEP AP203' ), '1' );
FILE_NAME( ' ', '  ', ( '  ' ), ( '  ' ), 'PSStep 10.1', '  ', '  ' );
FILE_SCHEMA( ( 'CONFIG_CONTROL_DESIGN' ) );
ENDSEC;
DATA;
#1 = DESIGN_CONTEXT( '', #27, 'design' );
#2 = APPLICATION_PROTOCOL_DEFINITION( 'INTERNATIONAL STANDARD', 'config_control_design', 1994, #27 );
#3 = PRODUCT_CATEGORY_RELATIONSHIP( 'NONE', 'NONE', #28, #29 );
#4 = DATE_AND_TIME( #30, #31 );
#5 = DATE_TIME_ROLE( 'creation_date' );
#6 = DATE_TIME_ROLE( 'classification_date' );
#7 = PERSON_AND_ORGANIZATION_ROLE( 'creator' );
#8 = PERSON_AND_ORGANIZATION_ROLE( 'design_supplier' );
#9 = PERSON_AND_ORGANIZATION_ROLE( 'classification_officer' );
#10 = PERSON_AND_ORGANIZATION_ROLE( 'design_owner' );
#11 = APPROVAL_PERSON_ORGANIZATION( #32, #33, #34 );
#12 = APPROVAL_DATE_TIME( #4, #33 );
#13 = CC_DESIGN_APPROVAL( #33, ( #35, #36, #37 ) );
#14 = CC_DESIGN_DATE_AND_TIME_ASSIGNMENT( #4, #5, ( #37 ) );
#15 = CC_DESIGN_DATE_AND_TIME_ASSIGNMENT( #4, #6, ( #35 ) );
#16 = CC_DESIGN_PERSON_AND_ORGANIZATION_ASSIGNMENT( #32, #10, ( #38 ) );
#17 = CC_DESIGN_PERSON_AND_ORGANIZATION_ASSIGNMENT( #32, #7, ( #37 ) );
#18 = CC_DESIGN_PERSON_AND_ORGANIZATION_ASSIGNMENT( #32, #7, ( #36 ) );
#19 = CC_DESIGN_PERSON_AND_ORGANIZATION_ASSIGNMENT( #32, #8, ( #36 ) );
#20 = CC_DESIGN_SECURITY_CLASSIFICATION( #35, ( #36 ) );
#21 = CC_DESIGN_PERSON_AND_ORGANIZATION_ASSIGNMENT( #32, #9, ( #35 ) );
#22 = SHAPE_DEFINITION_REPRESENTATION( #39, #40 );
#23 =  ( GEOMETRIC_REPRESENTATION_CONTEXT( 3 )GLOBAL_UNCERTAINTY_ASSIGNED_CONTEXT( ( #43 ) )GLOBAL_UNIT_ASSIGNED_CONTEXT( ( #45, #46, #47 ) )REPRESENTATION_CONTEXT( 'NONE', 'WORKSPACE' ) );
#27 = APPLICATION_CONTEXT( 'CONFIGURATION CONTROLLED 3D DESIGNS OF MECHANICAL PARTS AND ASSEMBLIES' );
#28 = PRODUCT_CATEGORY( 'part', 'NONE' );
#29 = PRODUCT_RELATED_PRODUCT_CATEGORY( 'detail', ' ', ( #38 ) );
#30 = CALENDAR_DATE( 2023, 28, 1 );
#31 = LOCAL_TIME( 7, 48, 20.0000000000000, #49 );
#32 = PERSON_AND_ORGANIZATION( #50, #51 );
#33 = APPROVAL( #52, 'SOLID MODEL' );
#34 = APPROVAL_ROLE( 'APPROVED' );
#35 = SECURITY_CLASSIFICATION( '', '', #53 );
#36 = PRODUCT_DEFINITION_FORMATION_WITH_SPECIFIED_SOURCE( ' ', 'NONE', #38, .NOT_KNOWN. );
#37 = PRODUCT_DEFINITION( 'NONE', 'NONE', #36, #1 );
#38 = PRODUCT( '1', '1', 'PART-1-DESC', ( #54 ) );
#39 = PRODUCT_DEFINITION_SHAPE( 'NONE', 'NONE', #37 );
#40 = ADVANCED_BREP_SHAPE_REPRESENTATION( '1', ( #55, #56 ), #23 );
#43 = UNCERTAINTY_MEASURE_WITH_UNIT( LENGTH_MEASURE( 0.00100000000000000 ), #45, '', '' );
#45 =  ( CONVERSION_BASED_UNIT( 'MILLIMETRE', #59 )LENGTH_UNIT(  )NAMED_UNIT( #62 ) );
#46 =  ( NAMED_UNIT( #64 )PLANE_ANGLE_UNIT(  )SI_UNIT( $, .RADIAN. ) );
#47 =  ( NAMED_UNIT( #64 )SI_UNIT( $, .STERADIAN. )SOLID_ANGLE_UNIT(  ) );
#49 = COORDINATED_UNIVERSAL_TIME_OFFSET( 1, 0, .AHEAD. );
#50 = PERSON( '', 'UNSPECIFIED', $, $, $, $ );
#51 = ORGANIZATION( 'UNSPECIFIED', 'UNSPECIFIED', 'UNSPECIFIED' );
#52 = APPROVAL_STATUS( 'approved' );
#53 = SECURITY_CLASSIFICATION_LEVEL( 'unclassified' );
#54 = MECHANICAL_CONTEXT( '', #27, 'mechanical' );
#55 = MANIFOLD_SOLID_BREP( '1', #70 );
#56 = AXIS2_PLACEMENT_3D( '', #71, #72, #73 );
#59 = LENGTH_MEASURE_WITH_UNIT( LENGTH_MEASURE( 1.00000000000000 ), #74 );
#62 = DIMENSIONAL_EXPONENTS( 1.00000000000000, 0.000000000000000, 0.000000000000000, 0.000000000000000, 0.000000000000000, 0.000000000000000, 0.000000000000000 );
#64 = DIMENSIONAL_EXPONENTS( 0.000000000000000, 0.000000000000000, 0.000000000000000, 0.000000000000000, 0.000000000000000, 0.000000000000000, 0.000000000000000 );
#70 = CLOSED_SHELL( '', ( #75, #76, #77, #78, #79, #80, #81, #82 ) );
#71 = CARTESIAN_POINT( '', ( 0.000000000000000, 0.000000000000000, 0.000000000000000 ) );
#72 = DIRECTION( '', ( 0.000000000000000, 0.000000000000000, 1.00000000000000 ) );
#73 = DIRECTION( '', ( 1.00000000000000, 0.000000000000000, 0.000000000000000 ) );
#74 =  ( LENGTH_UNIT(  )NAMED_UNIT( #62 )SI_UNIT( .MILLI., .METRE. ) );
#75 = ADVANCED_FACE( '', ( #84, #85 ), #86, .F. );
#76 = ADVANCED_FACE( '', ( #87, #88, #89 ), #90, .F. );
#77 = ADVANCED_FACE( '', ( #91 ), #92, .T. );
#78 = ADVANCED_FACE( '', ( #93, #94, #95 ), #96, .T. );
#79 = ADVANCED_FACE( '', ( #97 ), #98, .T. );
#80 = ADVANCED_FACE( '', ( #99 ), #100, .T. );
#81 = ADVANCED_FACE( '', ( #101, #102 ), #103, .F. );
#82 = ADVANCED_FACE( '', ( #104 ), #105, .T. );
#84 = FACE_OUTER_BOUND( '', #106, .T. );
#85 = FACE_OUTER_BOUND( '', #107, .T. );
#86 = CYLINDRICAL_SURFACE( '', #108, 3.00000000000000 );
#87 = FACE_OUTER_BOUND( '', #109, .T. );
#88 = FACE_BOUND( '', #110, .T. );
#89 = FACE_BOUND( '', #111, .T. );
#90 = PLANE( '', #112 );
#91 = FACE_OUTER_BOUND( '', #113, .T. );
#92 = CYLINDRICAL_SURFACE( '', #114, 5.00000000000000 );
#93 = FACE_OUTER_BOUND( '', #115, .T. );
#94 = FACE_BOUND( '', #116, .T. );
#95 = FACE_BOUND( '', #117, .T. );
#96 = PLANE( '', #118 );
#97 = FACE_OUTER_BOUND( '', #119, .T. );
#98 = CYLINDRICAL_SURFACE( '', #120, 5.00000000000000 );
#99 = FACE_OUTER_BOUND( '', #121, .T. );
#100 = CYLINDRICAL_SURFACE( '', #122, 5.00000000000000 );
#101 = FACE_OUTER_BOUND( '', #123, .T. );
#102 = FACE_OUTER_BOUND( '', #124, .T. );
#103 = CYLINDRICAL_SURFACE( '', #125, 3.00000000000000 );
#104 = FACE_OUTER_BOUND( '', #126, .T. );
#105 = CYLINDRICAL_SURFACE( '', #127, 5.00000000000000 );
#106 = EDGE_LOOP( '', ( #128 ) );
#107 = EDGE_LOOP( '', ( #129 ) );
#108 = AXIS2_PLACEMENT_3D( '', #130, #131, #132 );
#109 = EDGE_LOOP( '', ( #133, #134, #135, #136 ) );
#110 = EDGE_LOOP( '', ( #137 ) );
#111 = EDGE_LOOP( '', ( #138 ) );
#112 = AXIS2_PLACEMENT_3D( '', #139, #140, #141 );
#113 = EDGE_LOOP( '', ( #142, #143, #144, #145 ) );
#114 = AXIS2_PLACEMENT_3D( '', #146, #147, #148 );
#115 = EDGE_LOOP( '', ( #149, #150, #151, #152 ) );
#116 = EDGE_LOOP( '', ( #153 ) );
#117 = EDGE_LOOP( '', ( #154 ) );
#118 = AXIS2_PLACEMENT_3D( '', #155, #156, #157 );
#119 = EDGE_LOOP( '', ( #158, #159, #160, #161 ) );
#120 = AXIS2_PLACEMENT_3D( '', #162, #163, #164 );
#121 = EDGE_LOOP( '', ( #165, #166, #167, #168 ) );
#122 = AXIS2_PLACEMENT_3D( '', #169, #170, #171 );
#123 = EDGE_LOOP( '', ( #172 ) );
#124 = EDGE_LOOP( '', ( #173 ) );
#125 = AXIS2_PLACEMENT_3D( '', #174, #175, #176 );
#126 = EDGE_LOOP( '', ( #177, #178, #179, #180 ) );
#127 = AXIS2_PLACEMENT_3D( '', #181, #182, #183 );
#128 = ORIENTED_EDGE( '', *, *, #184, .T. );
#129 = ORIENTED_EDGE( '', *, *, #185, .F. );
#130 = CARTESIAN_POINT( '', ( 13144.4281281000, 133.069581316000, -768.840414672000 ) );
#131 = DIRECTION( '', ( 0.999999999995998, -2.82762175622000E-006, -9.36492199316998E-008 ) );
#132 = DIRECTION( '', ( 2.82762175622001E-006, 0.999999999996002, -1.10023101740000E-013 ) );
#133 = ORIENTED_EDGE( '', *, *, #186, .F. );
#134 = ORIENTED_EDGE( '', *, *, #187, .F. );
#135 = ORIENTED_EDGE( '', *, *, #188, .F. );
#136 = ORIENTED_EDGE( '', *, *, #189, .F. );
#137 = ORIENTED_EDGE( '', *, *, #185, .T. );
#138 = ORIENTED_EDGE( '', *, *, #190, .T. );
#139 = CARTESIAN_POINT( '', ( 13139.4278237000, -0.0371533319787000, -0.00123049716604000 ) );
#140 = DIRECTION( '', ( 0.999999999995998, -2.82762175621999E-006, -9.36492199316998E-008 ) );
#141 = DIRECTION( '', ( 1.32348898007955E-023, 0.0331012803196173, -0.999452002469955 ) );
#142 = ORIENTED_EDGE( '', *, *, #191, .T. );
#143 = ORIENTED_EDGE( '', *, *, #192, .F. );
#144 = ORIENTED_EDGE( '', *, *, #193, .F. );
#145 = ORIENTED_EDGE( '', *, *, #189, .T. );
#146 = CARTESIAN_POINT( '', ( 13144.4281768000, 153.597199236000, -868.753293406000 ) );
#147 = DIRECTION( '', ( -6.31464281042714E-007, -0.190808995376886, -0.981627183447395 ) );
#148 = DIRECTION( '', ( 2.75780112162867E-006, 0.981627183443525, -0.190808995377908 ) );
#149 = ORIENTED_EDGE( '', *, *, #194, .T. );
#150 = ORIENTED_EDGE( '', *, *, #195, .T. );
#151 = ORIENTED_EDGE( '', *, *, #196, .T. );
#152 = ORIENTED_EDGE( '', *, *, #192, .T. );
#153 = ORIENTED_EDGE( '', *, *, #184, .F. );
#154 = ORIENTED_EDGE( '', *, *, #197, .F. );
#155 = CARTESIAN_POINT( '', ( 13144.4278237000, -0.0371674700875000, -0.00123096541214000 ) );
#156 = DIRECTION( '', ( 0.999999999995998, -2.82762175621999E-006, -9.36492199316998E-008 ) );
#157 = DIRECTION( '', ( 1.32348898007955E-023, 0.0331012803196173, -0.999452002469955 ) );
#158 = ORIENTED_EDGE( '', *, *, #193, .T. );
#159 = ORIENTED_EDGE( '', *, *, #196, .F. );
#160 = ORIENTED_EDGE( '', *, *, #198, .T. );
#161 = ORIENTED_EDGE( '', *, *, #186, .T. );
#162 = CARTESIAN_POINT( '', ( 13144.4281317000, 141.395121571000, -980.969451565000 ) );
#163 = DIRECTION( '', ( -2.82762175630001E-006, -0.999999999996002, -1.92652313061684E-021 ) );
#164 = DIRECTION( '', ( -9.36492140659996E-008, 2.64804557080999E-013, -0.999999999999996 ) );
#165 = ORIENTED_EDGE( '', *, *, #198, .F. );
#166 = ORIENTED_EDGE( '', *, *, #195, .F. );
#167 = ORIENTED_EDGE( '', *, *, #199, .F. );
#168 = ORIENTED_EDGE( '', *, *, #187, .T. );
#169 = CARTESIAN_POINT( '', ( 13144.4280435000, 106.500394930000, -869.230315895000 ) );
#170 = DIRECTION( '', ( 9.36492142496996E-008, -2.64766452726706E-013, 0.999999999999996 ) );
#171 = DIRECTION( '', ( -2.82762157404001E-006, -0.999999999996002, 3.80858786981049E-017 ) );
#172 = ORIENTED_EDGE( '', *, *, #197, .T. );
#173 = ORIENTED_EDGE( '', *, *, #190, .F. );
#174 = CARTESIAN_POINT( '', ( 13144.4280716000, 119.917977480000, -974.858132821000 ) );
#175 = DIRECTION( '', ( 0.999999999995998, -2.82762175622000E-006, -9.36492199316998E-008 ) );
#176 = DIRECTION( '', ( 2.82762175622001E-006, 0.999999999996002, -1.10023101740000E-013 ) );
#177 = ORIENTED_EDGE( '', *, *, #199, .T. );
#178 = ORIENTED_EDGE( '', *, *, #194, .F. );
#179 = ORIENTED_EDGE( '', *, *, #191, .F. );
#180 = ORIENTED_EDGE( '', *, *, #188, .T. );
#181 = CARTESIAN_POINT( '', ( 13144.4281527000, 141.395121571000, -757.491180224000 ) );
#182 = DIRECTION( '', ( 2.82762175630001E-006, 0.999999999996002, 1.92565494640282E-021 ) );
#183 = DIRECTION( '', ( 9.36492144333996E-008, -2.64804558118999E-013, 0.999999999999996 ) );
#184 = EDGE_CURVE( '', #200, #200, #201, .T. );
#185 = EDGE_CURVE( '', #202, #202, #203, .T. );
#186 = EDGE_CURVE( '', #204, #205, #206, .T. );
#187 = EDGE_CURVE( '', #207, #204, #208, .T. );
#188 = EDGE_CURVE( '', #209, #207, #210, .T. );
#189 = EDGE_CURVE( '', #205, #209, #211, .T. );
#190 = EDGE_CURVE( '', #212, #212, #213, .T. );
#191 = EDGE_CURVE( '', #209, #214, #215, .T. );
#192 = EDGE_CURVE( '', #216, #214, #217, .T. );
#193 = EDGE_CURVE( '', #205, #216, #218, .T. );
#194 = EDGE_CURVE( '', #214, #219, #220, .T. );
#195 = EDGE_CURVE( '', #219, #221, #222, .T. );
#196 = EDGE_CURVE( '', #221, #216, #223, .T. );
#197 = EDGE_CURVE( '', #224, #224, #225, .T. );
#198 = EDGE_CURVE( '', #221, #204, #226, .T. );
#199 = EDGE_CURVE( '', #207, #219, #227, .T. );
#200 = VERTEX_POINT( '', #228 );
#201 = CIRCLE( '', #229, 3.00000000000000 );
#202 = VERTEX_POINT( '', #230 );
#203 = CIRCLE( '', #231, 3.00000000000000 );
#204 = VERTEX_POINT( '', #232 );
#205 = VERTEX_POINT( '', #233 );
#206 = LINE( '', #234, #235 );
#207 = VERTEX_POINT( '', #236 );
#208 = LINE( '', #237, #238 );
#209 = VERTEX_POINT( '', #239 );
#210 = LINE( '', #240, #241 );
#211 = LINE( '', #242, #243 );
#212 = VERTEX_POINT( '', #244 );
#213 = CIRCLE( '', #245, 3.00000000000000 );
#214 = VERTEX_POINT( '', #246 );
#215 = B_SPLINE_CURVE_WITH_KNOTS( '', 3, ( #247, #248, #249, #250, #251, #252, #253, #254, #255, #256, #257, #258, #259, #260, #261, #262, #263, #264, #265, #266 ), .UNSPECIFIED., .F., .F., ( 4, 1, 1, 1, 1, 1, 1, 1, 1, 1, 1, 1, 1, 1, 1, 1, 1, 4 ), ( 0.000000000000000, 0.0331061730575905, 0.0618075327115202, 0.0861040081486694, 0.105995558200829, 0.174036011900240, 0.233528405007016, 0.361128083066012, 0.488797781218462, 0.616594129351332, 0.682944419354843, 0.744516923423620, 0.810454944077868, 0.872236649529661, 0.904959315526730, 0.937042005394173, 0.968660899198720, 1.00000000000000 ), .UNSPECIFIED. );
#216 = VERTEX_POINT( '', #267 );
#217 = LINE( '', #268, #269 );
#218 = B_SPLINE_CURVE_WITH_KNOTS( '', 3, ( #270, #271, #272, #273, #274, #275, #276, #277, #278, #279, #280, #281, #282, #283, #284, #285, #286, #287, #288 ), .UNSPECIFIED., .F., .F., ( 4, 1, 1, 1, 1, 1, 1, 1, 1, 1, 1, 1, 1, 1, 1, 1, 4 ), ( 0.000000000000000, 0.0335489880407583, 0.0625866111356242, 0.0871127320046743, 0.107127261469132, 0.175136310608325, 0.234719526116237, 0.362290516030137, 0.489812114712973, 0.617246035973531, 0.682664024792493, 0.744959324615697, 0.809852602323884, 0.872496895605781, 0.915389323885114, 0.957836097651119, 1.00000000000000 ), .UNSPECIFIED. );
#219 = VERTEX_POINT( '', #289 );
#220 = LINE( '', #290, #291 );
#221 = VERTEX_POINT( '', #292 );
#222 = LINE( '', #293, #294 );
#223 = LINE( '', #295, #296 );
#224 = VERTEX_POINT( '', #297 );
#225 = CIRCLE( '', #298, 3.00000000000000 );
#226 = B_SPLINE_CURVE_WITH_KNOTS( '', 3, ( #299, #300, #301, #302, #303, #304, #305, #306, #307, #308, #309, #310, #311, #312, #313, #314, #315, #316, #317, #318, #319 ), .UNSPECIFIED., .F., .F., ( 4, 1, 1, 1, 1, 1, 1, 1, 1, 1, 1, 1, 1, 1, 1, 1, 1, 1, 4 ), ( 0.000000000000000, 0.0179869326512493, 0.0360209329591695, 0.0541231612849242, 0.0723145399013528, 0.0906156853276280, 0.109046845741509, 0.127627844283895, 0.189956591842161, 0.255323561231829, 0.317183543986651, 0.382944914075346, 0.510531849195394, 0.638262821288150, 0.765933641301273, 0.825484718153589, 0.893502638326202, 0.937858101517580, 1.00000000000000 ), .UNSPECIFIED. );
#227 = B_SPLINE_CURVE_WITH_KNOTS( '', 3, ( #320, #321, #322, #323, #324, #325, #326, #327, #328, #329, #330, #331, #332, #333, #334, #335, #336, #337, #338, #339 ), .UNSPECIFIED., .F., .F., ( 4, 1, 1, 1, 1, 1, 1, 1, 1, 1, 1, 1, 1, 1, 1, 1, 1, 4 ), ( 0.000000000000000, 0.0334346160883276, 0.0623305227316516, 0.0866876146292783, 0.106505827036723, 0.174601463689845, 0.234077131636712, 0.361750333841782, 0.489483688577660, 0.617073008212136, 0.682830474789446, 0.744696747241751, 0.810059925932393, 0.872394850986324, 0.904804888136340, 0.936802724994740, 0.968497126346531, 1.00000000000000 ), .UNSPECIFIED. );
#228 = CARTESIAN_POINT( '', ( 13144.4281365873, 136.067937323398, -768.741110831042 ) );
#229 = AXIS2_PLACEMENT_3D( '', #340, #341, #342 );
#230 = CARTESIAN_POINT( '', ( 13139.4281365873, 136.067951462398, -768.741110363042 ) );
#231 = AXIS2_PLACEMENT_3D( '', #343, #344, #345 );
#232 = CARTESIAN_POINT( '', ( 13139.4280331000, 106.500409068000, -980.969451097000 ) );
#233 = CARTESIAN_POINT( '', ( 13139.4281046000, 131.784601861000, -980.969451097000 ) );
#234 = CARTESIAN_POINT( '', ( 13139.4281317000, 141.395135709000, -980.969451097000 ) );
#235 = VECTOR( '', #346, 1000.00000000000 );
#236 = CARTESIAN_POINT( '', ( 13139.4280540000, 106.500409068000, -757.491179756000 ) );
#237 = CARTESIAN_POINT( '', ( 13139.4280435000, 106.500409068000, -869.230315426000 ) );
#238 = VECTOR( '', #347, 1000.00000000000 );
#239 = CARTESIAN_POINT( '', ( 13139.4282483000, 175.224377330000, -757.491179756000 ) );
#240 = CARTESIAN_POINT( '', ( 13139.4281527000, 141.395135709000, -757.491179756000 ) );
#241 = VECTOR( '', #348, 1000.00000000000 );
#242 = CARTESIAN_POINT( '', ( 13139.4281768000, 153.597213374000, -868.753292938000 ) );
#243 = VECTOR( '', #349, 1000.00000000000 );
#244 = CARTESIAN_POINT( '', ( 13139.4280800873, 122.916347625398, -974.758828512042 ) );
#245 = AXIS2_PLACEMENT_3D( '', #350, #351, #352 );
#246 = CARTESIAN_POINT( '', ( 13144.4282659000, 181.289848212000, -752.491180224000 ) );
#247 = CARTESIAN_POINT( '', ( 13139.4282483731, 175.224377330000, -757.491179756000 ) );
#248 = CARTESIAN_POINT( '', ( 13139.4291301977, 175.311414092028, -757.419454384139 ) );
#249 = CARTESIAN_POINT( '', ( 13139.4307765191, 175.473907277417, -757.285546781475 ) );
#250 = CARTESIAN_POINT( '', ( 13139.4427319546, 175.700123764723, -757.099144506695 ) );
#251 = CARTESIAN_POINT( '', ( 13139.4578589785, 175.891340115989, -756.941445646597 ) );
#252 = CARTESIAN_POINT( '', ( 13139.4883508502, 176.185343485963, -756.698949900153 ) );
#253 = CARTESIAN_POINT( '', ( 13139.5468932251, 176.570595825047, -756.381589483687 ) );
#254 = CARTESIAN_POINT( '', ( 13139.6955980304, 177.231427764779, -755.836590536093 ) );
#255 = CARTESIAN_POINT( '', ( 13139.9675443752, 178.034096654031, -755.175027930284 ) );
#256 = CARTESIAN_POINT( '', ( 13140.4582340565, 178.970314665044, -754.403277591289 ) );
#257 = CARTESIAN_POINT( '', ( 13141.0232355295, 179.700822758037, -753.801036234181 ) );
#258 = CARTESIAN_POINT( '', ( 13141.5771080552, 180.221363678575, -753.372055079072 ) );
#259 = CARTESIAN_POINT( '', ( 13142.0529697253, 180.576354720278, -753.079298134837 ) );
#260 = CARTESIAN_POINT( '', ( 13142.5738583533, 180.872837065080, -752.835050345765 ) );
#261 = CARTESIAN_POINT( '', ( 13143.0612694412, 181.068027034339, -752.674044210177 ) );
#262 = CARTESIAN_POINT( '', ( 13143.4674928699, 181.181182163905, -752.580824584746 ) );
#263 = CARTESIAN_POINT( '', ( 13143.7862950654, 181.243551854307, -752.529433918614 ) );
#264 = CARTESIAN_POINT( '', ( 13144.1069012367, 181.282606328164, -752.497186021791 ) );
#265 = CARTESIAN_POINT( '', ( 13144.3214622521, 181.287441413371, -752.493176216592 ) );
#266 = CARTESIAN_POINT( '', ( 13144.4282659922, 181.289848212121, -752.491180224024 ) );
#267 = CARTESIAN_POINT( '', ( 13144.4281158000, 135.906269652000, -985.969451565000 ) );
#268 = CARTESIAN_POINT( '', ( 13144.4281909000, 158.598058932000, -869.230315895000 ) );
#269 = VECTOR( '', #353, 1000.00000000000 );
#270 = CARTESIAN_POINT( '', ( 13139.4281045251, 131.784601861000, -980.969451097000 ) );
#271 = CARTESIAN_POINT( '', ( 13139.4291487525, 131.848946184473, -981.047535321962 ) );
#272 = CARTESIAN_POINT( '', ( 13139.4310967890, 131.968982387863, -981.193203710457 ) );
#273 = CARTESIAN_POINT( '', ( 13139.4452203370, 132.135839777785, -981.395712315715 ) );
#274 = CARTESIAN_POINT( '', ( 13139.4630277843, 132.276584870256, -981.566353005802 ) );
#275 = CARTESIAN_POINT( '', ( 13139.4986294312, 132.491379333011, -981.826754929854 ) );
#276 = CARTESIAN_POINT( '', ( 13139.5665755752, 132.771392440871, -982.166720406027 ) );
#277 = CARTESIAN_POINT( '', ( 13139.7377719671, 133.248997003447, -982.745788120685 ) );
#278 = CARTESIAN_POINT( '', ( 13140.0480780533, 133.822079503456, -983.441140383469 ) );
#279 = CARTESIAN_POINT( '', ( 13140.5949783104, 134.471885079967, -984.229392433145 ) );
#280 = CARTESIAN_POINT( '', ( 13141.2014953144, 134.955904972465, -984.816522003529 ) );
#281 = CARTESIAN_POINT( '', ( 13141.7720073784, 135.285658095563, -985.216667184953 ) );
#282 = CARTESIAN_POINT( '', ( 13142.2449911770, 135.501652005823, -985.478564897303 ) );
#283 = CARTESIAN_POINT( '', ( 13142.7493692465, 135.676027936309, -985.690163843929 ) );
#284 = CARTESIAN_POINT( '', ( 13143.2312548191, 135.792967775395, -985.831917744061 ) );
#285 = CARTESIAN_POINT( '', ( 13143.6647323654, 135.861742548822, -985.915439276097 ) );
#286 = CARTESIAN_POINT( '', ( 13144.0456491985, 135.899286304327, -985.961004591349 ) );
#287 = CARTESIAN_POINT( '', ( 13144.3009113389, 135.903947063411, -985.966642189678 ) );
#288 = CARTESIAN_POINT( '', ( 13144.4281157114, 135.906269652000, -985.969451565000 ) );
#289 = CARTESIAN_POINT( '', ( 13144.4280403000, 101.500394930000, -752.491180224000 ) );
#290 = CARTESIAN_POINT( '', ( 13144.4281531000, 141.395121571000, -752.491180224000 ) );
#291 = VECTOR( '', #354, 1000.00000000000 );
#292 = CARTESIAN_POINT( '', ( 13144.4280185000, 101.500394930000, -985.969451565000 ) );
#293 = CARTESIAN_POINT( '', ( 13144.4280294000, 101.500394930000, -869.230315895000 ) );
#294 = VECTOR( '', #355, 1000.00000000000 );
#295 = CARTESIAN_POINT( '', ( 13144.4280671000, 118.703332291000, -985.969451565000 ) );
#296 = VECTOR( '', #356, 1000.00000000000 );
#297 = CARTESIAN_POINT( '', ( 13144.4280800873, 122.916333487398, -974.758828980042 ) );
#298 = AXIS2_PLACEMENT_3D( '', #357, #358, #359 );
#299 = CARTESIAN_POINT( '', ( 13144.4280184246, 101.500394930000, -985.969451565000 ) );
#300 = CARTESIAN_POINT( '', ( 13144.3707888619, 101.500965866209, -985.968883875373 ) );
#301 = CARTESIAN_POINT( '', ( 13144.2561799799, 101.502109232635, -985.967747010605 ) );
#302 = CARTESIAN_POINT( '', ( 13144.0843821318, 101.511337387701, -985.958547415501 ) );
#303 = CARTESIAN_POINT( '', ( 13143.9127482915, 101.526061500837, -985.943844892593 ) );
#304 = CARTESIAN_POINT( '', ( 13143.7414843952, 101.546824731772, -985.923091394725 ) );
#305 = CARTESIAN_POINT( '', ( 13143.5707998665, 101.573479402791, -985.896433381599 ) );
#306 = CARTESIAN_POINT( '', ( 13143.4008950579, 101.606067660170, -985.863834849834 ) );
#307 = CARTESIAN_POINT( '', ( 13143.1000210240, 101.674654086216, -985.795247192752 ) );
#308 = CARTESIAN_POINT( '', ( 13142.6719317422, 101.807234617746, -985.662782555051 ) );
#309 = CARTESIAN_POINT( '', ( 13142.1586580394, 102.033615889423, -985.436232286275 ) );
#310 = CARTESIAN_POINT( '', ( 13141.6830979380, 102.309895789058, -985.160031448754 ) );
#311 = CARTESIAN_POINT( '', ( 13141.1186553370, 102.724102223929, -984.745718243250 ) );
#312 = CARTESIAN_POINT( '', ( 13140.5297596901, 103.320056269694, -984.149694053585 ) );
#313 = CARTESIAN_POINT( '', ( 13140.0087216290, 104.102460927845, -983.367290433430 ) );
#314 = CARTESIAN_POINT( '', ( 13139.7168627307, 104.782792861635, -982.686945316225 ) );
#315 = CARTESIAN_POINT( '', ( 13139.5564977990, 105.346078228731, -982.123944267617 ) );
#316 = CARTESIAN_POINT( '', ( 13139.4832272844, 105.729509778984, -981.740247401994 ) );
#317 = CARTESIAN_POINT( '', ( 13139.4370268325, 106.121079534988, -981.349000345762 ) );
#318 = CARTESIAN_POINT( '', ( 13139.4313471578, 106.360629889000, -981.109311239080 ) );
#319 = CARTESIAN_POINT( '', ( 13139.4280330309, 106.500409068000, -980.969451097000 ) );
#320 = CARTESIAN_POINT( '', ( 13139.4280540309, 106.500409068000, -757.491179756000 ) );
#321 = CARTESIAN_POINT( '', ( 13139.4290227443, 106.425204755041, -757.415950373844 ) );
#322 = CARTESIAN_POINT( '', ( 13139.4308286694, 106.285005025336, -757.275703908858 ) );
#323 = CARTESIAN_POINT( '', ( 13139.4439144706, 106.090216282749, -757.080833450783 ) );
#324 = CARTESIAN_POINT( '', ( 13139.4603736335, 105.926193636297, -756.916899949803 ) );
#325 = CARTESIAN_POINT( '', ( 13139.4934127054, 105.674637165738, -756.665484185329 ) );
#326 = CARTESIAN_POINT( '', ( 13139.5566582866, 105.345932227589, -756.336516253744 ) );
#327 = CARTESIAN_POINT( '', ( 13139.7168888385, 104.782637144123, -755.773543704777 ) );
#328 = CARTESIAN_POINT( '', ( 13140.0087579280, 104.102475103959, -755.093348473560 ) );
#329 = CARTESIAN_POINT( '', ( 13140.5297688146, 103.320064993765, -754.310946037596 ) );
#330 = CARTESIAN_POINT( '', ( 13141.1186603906, 102.724118469626, -753.714929219749 ) );
#331 = CARTESIAN_POINT( '', ( 13141.6831023756, 102.309907119904, -753.300610869592 ) );
#332 = CARTESIAN_POINT( '', ( 13142.1586429998, 102.033636466908, -753.024419570363 ) );
#333 = CARTESIAN_POINT( '', ( 13142.6719536409, 101.807225146928, -752.797839268737 ) );
#334 = CARTESIAN_POINT( '', ( 13143.1404404258, 101.662173294288, -752.652913135878 ) );
#335 = CARTESIAN_POINT( '', ( 13143.5266626533, 101.579211163542, -752.569935751437 ) );
#336 = CARTESIAN_POINT( '', ( 13143.8259298989, 101.534007478611, -752.524722245802 ) );
#337 = CARTESIAN_POINT( '', ( 13144.1266740056, 101.505666145324, -752.496424025966 ) );
#338 = CARTESIAN_POINT( '', ( 13144.3277880768, 101.502148448159, -752.492924622854 ) );
#339 = CARTESIAN_POINT( '', ( 13144.4280403611, 101.500394930000, -752.491180224000 ) );
#340 = CARTESIAN_POINT( '', ( 13144.4281281000, 133.069581316000, -768.840414672000 ) );
#341 = DIRECTION( '', ( 0.999999999995998, -2.82756060615779E-006, -9.36471946765143E-008 ) );
#342 = DIRECTION( '', ( 2.82911095197169E-006, 0.999452002465955, 0.0331012803194848 ) );
#343 = CARTESIAN_POINT( '', ( 13139.4281281000, 133.069595455000, -768.840414204000 ) );
#344 = DIRECTION( '', ( 0.999999999995998, -2.82756060615779E-006, -9.36471946765143E-008 ) );
#345 = DIRECTION( '', ( 2.82911095197169E-006, 0.999452002465955, 0.0331012803194848 ) );
#346 = DIRECTION( '', ( 2.82762174430001E-006, 0.999999999996002, 0.000000000000000 ) );
#347 = DIRECTION( '', ( -9.36492096629996E-008, 2.64766471227999E-013, -0.999999999999996 ) );
#348 = DIRECTION( '', ( -2.82762174430001E-006, -0.999999999996002, 0.000000000000000 ) );
#349 = DIRECTION( '', ( 6.31464276144231E-007, 0.190808995377070, 0.981627183447359 ) );
#350 = CARTESIAN_POINT( '', ( 13139.4280716000, 119.917991618000, -974.858132353000 ) );
#351 = DIRECTION( '', ( 0.999999999995998, -2.82756060615779E-006, -9.36471946765143E-008 ) );
#352 = DIRECTION( '', ( 2.82911095197169E-006, 0.999452002465955, 0.0331012803194848 ) );
#353 = DIRECTION( '', ( 6.31464288960231E-007, 0.190808995377070, 0.981627183447359 ) );
#354 = DIRECTION( '', ( -2.82762176058001E-006, -0.999999999996002, 0.000000000000000 ) );
#355 = DIRECTION( '', ( -9.36492219056996E-008, 2.64766471227999E-013, -0.999999999999996 ) );
#356 = DIRECTION( '', ( 2.82762176347001E-006, 0.999999999996002, 0.000000000000000 ) );
#357 = CARTESIAN_POINT( '', ( 13144.4280716000, 119.917977480000, -974.858132821000 ) );
#358 = DIRECTION( '', ( 0.999999999995998, -2.82756060615779E-006, -9.36471946765143E-008 ) );
#359 = DIRECTION( '', ( 2.82911095197169E-006, 0.999452002465955, 0.0331012803194848 ) );
ENDSEC;
END-ISO-10303-21;
