ISO-10303-21;
HEADER;
/* Generated by software containing ST-Developer
 * from STEP Tools, Inc. (www.steptools.com) 
 */

FILE_DESCRIPTION(
/* description */ (''),
/* implementation_level */ '2;1');

FILE_NAME(
/* name */ 'Chape modifie.stp',
/* time_stamp */ '2023-02-01T11:21:59+01:00',
/* author */ ('snowak'),
/* organization */ (''),
/* preprocessor_version */ 'ST-DEVELOPER v19.2',
/* originating_system */ 'Autodesk Inventor 2023',
/* authorisation */ '');

FILE_SCHEMA (('AUTOMOTIVE_DESIGN { 1 0 10303 214 3 1 1 }'));
ENDSEC;

DATA;
#10=MECHANICAL_DESIGN_GEOMETRIC_PRESENTATION_REPRESENTATION('',(#13),#523);
#11=SHAPE_REPRESENTATION_RELATIONSHIP('SRR','None',#530,#12);
#12=ADVANCED_BREP_SHAPE_REPRESENTATION('',(#14),#522);
#13=STYLED_ITEM('',(#539),#14);
#14=MANIFOLD_SOLID_BREP('Solide2',#302);
#15=FACE_BOUND('',#53,.T.);
#16=FACE_BOUND('',#54,.T.);
#17=FACE_BOUND('',#56,.T.);
#18=FACE_BOUND('',#61,.T.);
#19=FACE_BOUND('',#62,.T.);
#20=FACE_BOUND('',#64,.T.);
#21=FACE_BOUND('',#65,.T.);
#22=FACE_BOUND('',#68,.T.);
#23=FACE_BOUND('',#69,.T.);
#24=FACE_BOUND('',#72,.T.);
#25=PLANE('',#337);
#26=PLANE('',#338);
#27=PLANE('',#348);
#28=PLANE('',#349);
#29=PLANE('',#350);
#30=PLANE('',#351);
#31=PLANE('',#352);
#32=PLANE('',#353);
#33=FACE_OUTER_BOUND('',#48,.T.);
#34=FACE_OUTER_BOUND('',#49,.T.);
#35=FACE_OUTER_BOUND('',#50,.T.);
#36=FACE_OUTER_BOUND('',#51,.T.);
#37=FACE_OUTER_BOUND('',#52,.T.);
#38=FACE_OUTER_BOUND('',#55,.T.);
#39=FACE_OUTER_BOUND('',#57,.T.);
#40=FACE_OUTER_BOUND('',#58,.T.);
#41=FACE_OUTER_BOUND('',#59,.T.);
#42=FACE_OUTER_BOUND('',#60,.T.);
#43=FACE_OUTER_BOUND('',#63,.T.);
#44=FACE_OUTER_BOUND('',#66,.T.);
#45=FACE_OUTER_BOUND('',#67,.T.);
#46=FACE_OUTER_BOUND('',#70,.T.);
#47=FACE_OUTER_BOUND('',#71,.T.);
#48=EDGE_LOOP('',(#202,#203,#204,#205));
#49=EDGE_LOOP('',(#206,#207,#208,#209));
#50=EDGE_LOOP('',(#210,#211,#212,#213));
#51=EDGE_LOOP('',(#214,#215,#216,#217));
#52=EDGE_LOOP('',(#218,#219,#220,#221));
#53=EDGE_LOOP('',(#222));
#54=EDGE_LOOP('',(#223));
#55=EDGE_LOOP('',(#224,#225,#226,#227));
#56=EDGE_LOOP('',(#228));
#57=EDGE_LOOP('',(#229,#230,#231,#232));
#58=EDGE_LOOP('',(#233,#234,#235,#236));
#59=EDGE_LOOP('',(#237,#238,#239,#240));
#60=EDGE_LOOP('',(#241,#242,#243,#244));
#61=EDGE_LOOP('',(#245));
#62=EDGE_LOOP('',(#246));
#63=EDGE_LOOP('',(#247,#248,#249,#250));
#64=EDGE_LOOP('',(#251));
#65=EDGE_LOOP('',(#252));
#66=EDGE_LOOP('',(#253,#254,#255,#256,#257,#258,#259,#260));
#67=EDGE_LOOP('',(#261,#262,#263,#264));
#68=EDGE_LOOP('',(#265));
#69=EDGE_LOOP('',(#266));
#70=EDGE_LOOP('',(#267,#268,#269,#270,#271,#272,#273,#274));
#71=EDGE_LOOP('',(#275,#276,#277,#278));
#72=EDGE_LOOP('',(#279));
#73=LINE('',#444,#98);
#74=LINE('',#450,#99);
#75=LINE('',#456,#100);
#76=LINE('',#463,#101);
#77=LINE('',#466,#102);
#78=LINE('',#469,#103);
#79=LINE('',#471,#104);
#80=LINE('',#472,#105);
#81=LINE('',#475,#106);
#82=LINE('',#477,#107);
#83=LINE('',#478,#108);
#84=LINE('',#483,#109);
#85=LINE('',#489,#110);
#86=LINE('',#496,#111);
#87=LINE('',#499,#112);
#88=LINE('',#501,#113);
#89=LINE('',#502,#114);
#90=LINE('',#506,#115);
#91=LINE('',#507,#116);
#92=LINE('',#508,#117);
#93=LINE('',#511,#118);
#94=LINE('',#512,#119);
#95=LINE('',#515,#120);
#96=LINE('',#516,#121);
#97=LINE('',#518,#122);
#98=VECTOR('',#360,12.5);
#99=VECTOR('',#367,2.5);
#100=VECTOR('',#374,12.6);
#101=VECTOR('',#381,10.);
#102=VECTOR('',#384,10.);
#103=VECTOR('',#387,10.);
#104=VECTOR('',#388,10.);
#105=VECTOR('',#389,10.);
#106=VECTOR('',#392,10.);
#107=VECTOR('',#393,10.);
#108=VECTOR('',#394,10.);
#109=VECTOR('',#399,2.5);
#110=VECTOR('',#406,12.6);
#111=VECTOR('',#413,10.);
#112=VECTOR('',#416,10.);
#113=VECTOR('',#419,10.);
#114=VECTOR('',#420,10.);
#115=VECTOR('',#423,10.);
#116=VECTOR('',#424,10.);
#117=VECTOR('',#425,10.);
#118=VECTOR('',#428,10.);
#119=VECTOR('',#429,10.);
#120=VECTOR('',#432,10.);
#121=VECTOR('',#433,10.);
#122=VECTOR('',#436,10.);
#123=CIRCLE('',#326,12.5);
#124=CIRCLE('',#327,12.5);
#125=CIRCLE('',#329,2.5);
#126=CIRCLE('',#330,2.5);
#127=CIRCLE('',#332,12.6);
#128=CIRCLE('',#333,12.6);
#129=CIRCLE('',#335,30.);
#130=CIRCLE('',#336,30.);
#131=CIRCLE('',#340,2.5);
#132=CIRCLE('',#341,2.5);
#133=CIRCLE('',#343,12.6);
#134=CIRCLE('',#344,12.6);
#135=CIRCLE('',#346,30.);
#136=CIRCLE('',#347,30.);
#137=VERTEX_POINT('',#441);
#138=VERTEX_POINT('',#443);
#139=VERTEX_POINT('',#447);
#140=VERTEX_POINT('',#449);
#141=VERTEX_POINT('',#453);
#142=VERTEX_POINT('',#455);
#143=VERTEX_POINT('',#459);
#144=VERTEX_POINT('',#460);
#145=VERTEX_POINT('',#462);
#146=VERTEX_POINT('',#464);
#147=VERTEX_POINT('',#468);
#148=VERTEX_POINT('',#470);
#149=VERTEX_POINT('',#474);
#150=VERTEX_POINT('',#476);
#151=VERTEX_POINT('',#480);
#152=VERTEX_POINT('',#482);
#153=VERTEX_POINT('',#486);
#154=VERTEX_POINT('',#488);
#155=VERTEX_POINT('',#492);
#156=VERTEX_POINT('',#493);
#157=VERTEX_POINT('',#495);
#158=VERTEX_POINT('',#497);
#159=VERTEX_POINT('',#504);
#160=VERTEX_POINT('',#505);
#161=VERTEX_POINT('',#510);
#162=VERTEX_POINT('',#514);
#163=EDGE_CURVE('',#137,#137,#123,.T.);
#164=EDGE_CURVE('',#137,#138,#73,.T.);
#165=EDGE_CURVE('',#138,#138,#124,.T.);
#166=EDGE_CURVE('',#139,#139,#125,.T.);
#167=EDGE_CURVE('',#139,#140,#74,.T.);
#168=EDGE_CURVE('',#140,#140,#126,.T.);
#169=EDGE_CURVE('',#141,#141,#127,.T.);
#170=EDGE_CURVE('',#141,#142,#75,.T.);
#171=EDGE_CURVE('',#142,#142,#128,.T.);
#172=EDGE_CURVE('',#143,#144,#129,.T.);
#173=EDGE_CURVE('',#144,#145,#76,.T.);
#174=EDGE_CURVE('',#145,#146,#130,.T.);
#175=EDGE_CURVE('',#143,#146,#77,.T.);
#176=EDGE_CURVE('',#146,#147,#78,.T.);
#177=EDGE_CURVE('',#148,#145,#79,.T.);
#178=EDGE_CURVE('',#147,#148,#80,.T.);
#179=EDGE_CURVE('',#148,#149,#81,.T.);
#180=EDGE_CURVE('',#149,#150,#82,.T.);
#181=EDGE_CURVE('',#150,#147,#83,.T.);
#182=EDGE_CURVE('',#151,#151,#131,.T.);
#183=EDGE_CURVE('',#151,#152,#84,.T.);
#184=EDGE_CURVE('',#152,#152,#132,.T.);
#185=EDGE_CURVE('',#153,#153,#133,.T.);
#186=EDGE_CURVE('',#153,#154,#85,.T.);
#187=EDGE_CURVE('',#154,#154,#134,.T.);
#188=EDGE_CURVE('',#155,#156,#135,.T.);
#189=EDGE_CURVE('',#155,#157,#86,.T.);
#190=EDGE_CURVE('',#158,#157,#136,.T.);
#191=EDGE_CURVE('',#156,#158,#87,.T.);
#192=EDGE_CURVE('',#157,#150,#88,.T.);
#193=EDGE_CURVE('',#149,#158,#89,.T.);
#194=EDGE_CURVE('',#159,#160,#90,.T.);
#195=EDGE_CURVE('',#160,#144,#91,.T.);
#196=EDGE_CURVE('',#159,#143,#92,.T.);
#197=EDGE_CURVE('',#161,#159,#93,.T.);
#198=EDGE_CURVE('',#161,#155,#94,.T.);
#199=EDGE_CURVE('',#162,#161,#95,.T.);
#200=EDGE_CURVE('',#162,#156,#96,.T.);
#201=EDGE_CURVE('',#160,#162,#97,.T.);
#202=ORIENTED_EDGE('',*,*,#163,.F.);
#203=ORIENTED_EDGE('',*,*,#164,.T.);
#204=ORIENTED_EDGE('',*,*,#165,.F.);
#205=ORIENTED_EDGE('',*,*,#164,.F.);
#206=ORIENTED_EDGE('',*,*,#166,.F.);
#207=ORIENTED_EDGE('',*,*,#167,.T.);
#208=ORIENTED_EDGE('',*,*,#168,.F.);
#209=ORIENTED_EDGE('',*,*,#167,.F.);
#210=ORIENTED_EDGE('',*,*,#169,.T.);
#211=ORIENTED_EDGE('',*,*,#170,.T.);
#212=ORIENTED_EDGE('',*,*,#171,.T.);
#213=ORIENTED_EDGE('',*,*,#170,.F.);
#214=ORIENTED_EDGE('',*,*,#172,.T.);
#215=ORIENTED_EDGE('',*,*,#173,.T.);
#216=ORIENTED_EDGE('',*,*,#174,.T.);
#217=ORIENTED_EDGE('',*,*,#175,.F.);
#218=ORIENTED_EDGE('',*,*,#176,.F.);
#219=ORIENTED_EDGE('',*,*,#174,.F.);
#220=ORIENTED_EDGE('',*,*,#177,.F.);
#221=ORIENTED_EDGE('',*,*,#178,.F.);
#222=ORIENTED_EDGE('',*,*,#168,.T.);
#223=ORIENTED_EDGE('',*,*,#169,.F.);
#224=ORIENTED_EDGE('',*,*,#178,.T.);
#225=ORIENTED_EDGE('',*,*,#179,.T.);
#226=ORIENTED_EDGE('',*,*,#180,.T.);
#227=ORIENTED_EDGE('',*,*,#181,.T.);
#228=ORIENTED_EDGE('',*,*,#165,.T.);
#229=ORIENTED_EDGE('',*,*,#182,.F.);
#230=ORIENTED_EDGE('',*,*,#183,.T.);
#231=ORIENTED_EDGE('',*,*,#184,.F.);
#232=ORIENTED_EDGE('',*,*,#183,.F.);
#233=ORIENTED_EDGE('',*,*,#185,.F.);
#234=ORIENTED_EDGE('',*,*,#186,.T.);
#235=ORIENTED_EDGE('',*,*,#187,.F.);
#236=ORIENTED_EDGE('',*,*,#186,.F.);
#237=ORIENTED_EDGE('',*,*,#188,.F.);
#238=ORIENTED_EDGE('',*,*,#189,.T.);
#239=ORIENTED_EDGE('',*,*,#190,.F.);
#240=ORIENTED_EDGE('',*,*,#191,.F.);
#241=ORIENTED_EDGE('',*,*,#192,.T.);
#242=ORIENTED_EDGE('',*,*,#180,.F.);
#243=ORIENTED_EDGE('',*,*,#193,.T.);
#244=ORIENTED_EDGE('',*,*,#190,.T.);
#245=ORIENTED_EDGE('',*,*,#184,.T.);
#246=ORIENTED_EDGE('',*,*,#185,.T.);
#247=ORIENTED_EDGE('',*,*,#194,.T.);
#248=ORIENTED_EDGE('',*,*,#195,.T.);
#249=ORIENTED_EDGE('',*,*,#172,.F.);
#250=ORIENTED_EDGE('',*,*,#196,.F.);
#251=ORIENTED_EDGE('',*,*,#166,.T.);
#252=ORIENTED_EDGE('',*,*,#171,.F.);
#253=ORIENTED_EDGE('',*,*,#197,.T.);
#254=ORIENTED_EDGE('',*,*,#196,.T.);
#255=ORIENTED_EDGE('',*,*,#175,.T.);
#256=ORIENTED_EDGE('',*,*,#176,.T.);
#257=ORIENTED_EDGE('',*,*,#181,.F.);
#258=ORIENTED_EDGE('',*,*,#192,.F.);
#259=ORIENTED_EDGE('',*,*,#189,.F.);
#260=ORIENTED_EDGE('',*,*,#198,.F.);
#261=ORIENTED_EDGE('',*,*,#199,.T.);
#262=ORIENTED_EDGE('',*,*,#198,.T.);
#263=ORIENTED_EDGE('',*,*,#188,.T.);
#264=ORIENTED_EDGE('',*,*,#200,.F.);
#265=ORIENTED_EDGE('',*,*,#182,.T.);
#266=ORIENTED_EDGE('',*,*,#187,.T.);
#267=ORIENTED_EDGE('',*,*,#201,.T.);
#268=ORIENTED_EDGE('',*,*,#200,.T.);
#269=ORIENTED_EDGE('',*,*,#191,.T.);
#270=ORIENTED_EDGE('',*,*,#193,.F.);
#271=ORIENTED_EDGE('',*,*,#179,.F.);
#272=ORIENTED_EDGE('',*,*,#177,.T.);
#273=ORIENTED_EDGE('',*,*,#173,.F.);
#274=ORIENTED_EDGE('',*,*,#195,.F.);
#275=ORIENTED_EDGE('',*,*,#201,.F.);
#276=ORIENTED_EDGE('',*,*,#194,.F.);
#277=ORIENTED_EDGE('',*,*,#197,.F.);
#278=ORIENTED_EDGE('',*,*,#199,.F.);
#279=ORIENTED_EDGE('',*,*,#163,.T.);
#280=CYLINDRICAL_SURFACE('',#325,12.5);
#281=CYLINDRICAL_SURFACE('',#328,2.5);
#282=CYLINDRICAL_SURFACE('',#331,12.6);
#283=CYLINDRICAL_SURFACE('',#334,30.);
#284=CYLINDRICAL_SURFACE('',#339,2.5);
#285=CYLINDRICAL_SURFACE('',#342,12.6);
#286=CYLINDRICAL_SURFACE('',#345,30.);
#287=ADVANCED_FACE('',(#33),#280,.F.);
#288=ADVANCED_FACE('',(#34),#281,.F.);
#289=ADVANCED_FACE('',(#35),#282,.F.);
#290=ADVANCED_FACE('',(#36),#283,.T.);
#291=ADVANCED_FACE('',(#37,#15,#16),#25,.T.);
#292=ADVANCED_FACE('',(#38,#17),#26,.T.);
#293=ADVANCED_FACE('',(#39),#284,.F.);
#294=ADVANCED_FACE('',(#40),#285,.F.);
#295=ADVANCED_FACE('',(#41),#286,.T.);
#296=ADVANCED_FACE('',(#42,#18,#19),#27,.F.);
#297=ADVANCED_FACE('',(#43,#20,#21),#28,.T.);
#298=ADVANCED_FACE('',(#44),#29,.T.);
#299=ADVANCED_FACE('',(#45,#22,#23),#30,.T.);
#300=ADVANCED_FACE('',(#46),#31,.T.);
#301=ADVANCED_FACE('',(#47,#24),#32,.F.);
#302=CLOSED_SHELL('',(#287,#288,#289,#290,#291,#292,#293,#294,#295,#296,
#297,#298,#299,#300,#301));
#303=DERIVED_UNIT_ELEMENT(#306,1.);
#304=DERIVED_UNIT_ELEMENT(#525,-3.);
#305=DIMENSIONAL_EXPONENTS(0.,1.,0.,0.,0.,0.,0.);
#306=(
CONVERSION_BASED_UNIT('gram',#308)
MASS_UNIT()
NAMED_UNIT(#305)
);
#307=(
MASS_UNIT()
NAMED_UNIT(*)
SI_UNIT(.KILO.,.GRAM.)
);
#308=MASS_MEASURE_WITH_UNIT(MASS_MEASURE(0.001),#307);
#309=DERIVED_UNIT((#303,#304));
#310=MEASURE_REPRESENTATION_ITEM('density measure',
POSITIVE_RATIO_MEASURE(1.),#309);
#311=PROPERTY_DEFINITION_REPRESENTATION(#316,#313);
#312=PROPERTY_DEFINITION_REPRESENTATION(#317,#314);
#313=REPRESENTATION('material name',(#315),#522);
#314=REPRESENTATION('density',(#310),#522);
#315=DESCRIPTIVE_REPRESENTATION_ITEM('G\X\E9n\X\E9rique','G\X\E9n\X\E9
rique');
#316=PROPERTY_DEFINITION('material property','material name',#532);
#317=PROPERTY_DEFINITION('material property','density of part',#532);
#318=DATE_TIME_ROLE('creation_date');
#319=APPLIED_DATE_AND_TIME_ASSIGNMENT(#320,#318,(#532));
#320=DATE_AND_TIME(#321,#322);
#321=CALENDAR_DATE(2023,31,1);
#322=LOCAL_TIME(0,0,0.,#323);
#323=COORDINATED_UNIVERSAL_TIME_OFFSET(0,0,.BEHIND.);
#324=AXIS2_PLACEMENT_3D('placement',#439,#354,#355);
#325=AXIS2_PLACEMENT_3D('',#440,#356,#357);
#326=AXIS2_PLACEMENT_3D('',#442,#358,#359);
#327=AXIS2_PLACEMENT_3D('',#445,#361,#362);
#328=AXIS2_PLACEMENT_3D('',#446,#363,#364);
#329=AXIS2_PLACEMENT_3D('',#448,#365,#366);
#330=AXIS2_PLACEMENT_3D('',#451,#368,#369);
#331=AXIS2_PLACEMENT_3D('',#452,#370,#371);
#332=AXIS2_PLACEMENT_3D('',#454,#372,#373);
#333=AXIS2_PLACEMENT_3D('',#457,#375,#376);
#334=AXIS2_PLACEMENT_3D('',#458,#377,#378);
#335=AXIS2_PLACEMENT_3D('',#461,#379,#380);
#336=AXIS2_PLACEMENT_3D('',#465,#382,#383);
#337=AXIS2_PLACEMENT_3D('',#467,#385,#386);
#338=AXIS2_PLACEMENT_3D('',#473,#390,#391);
#339=AXIS2_PLACEMENT_3D('',#479,#395,#396);
#340=AXIS2_PLACEMENT_3D('',#481,#397,#398);
#341=AXIS2_PLACEMENT_3D('',#484,#400,#401);
#342=AXIS2_PLACEMENT_3D('',#485,#402,#403);
#343=AXIS2_PLACEMENT_3D('',#487,#404,#405);
#344=AXIS2_PLACEMENT_3D('',#490,#407,#408);
#345=AXIS2_PLACEMENT_3D('',#491,#409,#410);
#346=AXIS2_PLACEMENT_3D('',#494,#411,#412);
#347=AXIS2_PLACEMENT_3D('',#498,#414,#415);
#348=AXIS2_PLACEMENT_3D('',#500,#417,#418);
#349=AXIS2_PLACEMENT_3D('',#503,#421,#422);
#350=AXIS2_PLACEMENT_3D('',#509,#426,#427);
#351=AXIS2_PLACEMENT_3D('',#513,#430,#431);
#352=AXIS2_PLACEMENT_3D('',#517,#434,#435);
#353=AXIS2_PLACEMENT_3D('',#519,#437,#438);
#354=DIRECTION('axis',(0.,0.,1.));
#355=DIRECTION('refdir',(1.,0.,0.));
#356=DIRECTION('center_axis',(0.,0.,-1.));
#357=DIRECTION('ref_axis',(-1.,0.,0.));
#358=DIRECTION('center_axis',(0.,0.,1.));
#359=DIRECTION('ref_axis',(-1.,0.,0.));
#360=DIRECTION('',(0.,0.,1.));
#361=DIRECTION('center_axis',(0.,0.,-1.));
#362=DIRECTION('ref_axis',(-1.,0.,0.));
#363=DIRECTION('center_axis',(-1.,0.,0.));
#364=DIRECTION('ref_axis',(0.,0.,1.));
#365=DIRECTION('center_axis',(-1.,0.,0.));
#366=DIRECTION('ref_axis',(0.,0.,1.));
#367=DIRECTION('',(-1.,0.,0.));
#368=DIRECTION('center_axis',(1.,0.,0.));
#369=DIRECTION('ref_axis',(0.,0.,1.));
#370=DIRECTION('center_axis',(1.,0.,0.));
#371=DIRECTION('ref_axis',(0.,0.,-1.));
#372=DIRECTION('center_axis',(-1.,0.,0.));
#373=DIRECTION('ref_axis',(0.,0.,-1.));
#374=DIRECTION('',(1.,0.,0.));
#375=DIRECTION('center_axis',(1.,0.,0.));
#376=DIRECTION('ref_axis',(0.,0.,-1.));
#377=DIRECTION('center_axis',(1.,0.,0.));
#378=DIRECTION('ref_axis',(0.,-1.,0.));
#379=DIRECTION('center_axis',(-1.,0.,0.));
#380=DIRECTION('ref_axis',(0.,-1.,0.));
#381=DIRECTION('',(-1.,0.,0.));
#382=DIRECTION('center_axis',(1.,0.,0.));
#383=DIRECTION('ref_axis',(0.,-1.,0.));
#384=DIRECTION('',(-1.,0.,0.));
#385=DIRECTION('center_axis',(-1.,0.,0.));
#386=DIRECTION('ref_axis',(0.,0.,1.));
#387=DIRECTION('',(0.,-1.51394048812521E-16,-1.));
#388=DIRECTION('',(0.,0.,1.));
#389=DIRECTION('',(0.,1.,0.));
#390=DIRECTION('center_axis',(0.,0.,1.));
#391=DIRECTION('ref_axis',(1.,0.,0.));
#392=DIRECTION('',(-1.,-1.94775969232484E-16,0.));
#393=DIRECTION('',(0.,-1.,0.));
#394=DIRECTION('',(1.,1.55820775385987E-16,0.));
#395=DIRECTION('center_axis',(-1.,0.,0.));
#396=DIRECTION('ref_axis',(0.,0.,1.));
#397=DIRECTION('center_axis',(1.,0.,0.));
#398=DIRECTION('ref_axis',(0.,0.,1.));
#399=DIRECTION('',(1.,0.,0.));
#400=DIRECTION('center_axis',(-1.,0.,0.));
#401=DIRECTION('ref_axis',(0.,0.,1.));
#402=DIRECTION('center_axis',(1.,0.,0.));
#403=DIRECTION('ref_axis',(0.,0.,-1.));
#404=DIRECTION('center_axis',(-1.,0.,0.));
#405=DIRECTION('ref_axis',(0.,0.,-1.));
#406=DIRECTION('',(-1.,0.,0.));
#407=DIRECTION('center_axis',(1.,0.,0.));
#408=DIRECTION('ref_axis',(0.,0.,-1.));
#409=DIRECTION('center_axis',(1.,0.,0.));
#410=DIRECTION('ref_axis',(0.,-1.,0.));
#411=DIRECTION('center_axis',(-1.,0.,0.));
#412=DIRECTION('ref_axis',(0.,-1.,0.));
#413=DIRECTION('',(1.,0.,0.));
#414=DIRECTION('center_axis',(1.,0.,0.));
#415=DIRECTION('ref_axis',(0.,-1.,0.));
#416=DIRECTION('',(1.,0.,0.));
#417=DIRECTION('center_axis',(-1.,0.,0.));
#418=DIRECTION('ref_axis',(0.,0.,1.));
#419=DIRECTION('',(0.,-1.51394048812521E-16,-1.));
#420=DIRECTION('',(0.,0.,1.));
#421=DIRECTION('center_axis',(1.,0.,0.));
#422=DIRECTION('ref_axis',(0.,1.,0.));
#423=DIRECTION('',(0.,1.,0.));
#424=DIRECTION('',(0.,0.,1.));
#425=DIRECTION('',(0.,0.,1.));
#426=DIRECTION('center_axis',(1.55820775385987E-16,-1.,0.));
#427=DIRECTION('ref_axis',(1.,1.55820775385987E-16,0.));
#428=DIRECTION('',(1.,1.55820775385987E-16,0.));
#429=DIRECTION('',(0.,0.,1.));
#430=DIRECTION('center_axis',(-1.,0.,0.));
#431=DIRECTION('ref_axis',(0.,-1.,0.));
#432=DIRECTION('',(0.,-1.,0.));
#433=DIRECTION('',(0.,0.,1.));
#434=DIRECTION('center_axis',(-1.94775969232484E-16,1.,0.));
#435=DIRECTION('ref_axis',(-1.,-1.94775969232484E-16,0.));
#436=DIRECTION('',(-1.,-1.94775969232484E-16,0.));
#437=DIRECTION('center_axis',(0.,0.,1.));
#438=DIRECTION('ref_axis',(1.,0.,0.));
#439=CARTESIAN_POINT('',(0.,0.,0.));
#440=CARTESIAN_POINT('Origin',(0.,0.,190.252463847384));
#441=CARTESIAN_POINT('',(12.5,-1.53080849893419E-15,0.));
#442=CARTESIAN_POINT('Origin',(0.,0.,0.));
#443=CARTESIAN_POINT('',(12.5,-1.53080849893419E-15,22.));
#444=CARTESIAN_POINT('',(12.5,-1.53080849893419E-15,190.252463847384));
#445=CARTESIAN_POINT('Origin',(0.,0.,22.));
#446=CARTESIAN_POINT('Origin',(-133.252463847384,0.,85.));
#447=CARTESIAN_POINT('',(57.,-3.06161699786838E-16,82.5));
#448=CARTESIAN_POINT('Origin',(57.,0.,85.));
#449=CARTESIAN_POINT('',(47.,-3.06161699786838E-16,82.5));
#450=CARTESIAN_POINT('',(-133.252463847384,-3.06161699786838E-16,82.5));
#451=CARTESIAN_POINT('Origin',(47.,0.,85.));
#452=CARTESIAN_POINT('Origin',(57.,0.,110.));
#453=CARTESIAN_POINT('',(47.,0.,122.6));
#454=CARTESIAN_POINT('Origin',(47.,0.,110.));
#455=CARTESIAN_POINT('',(57.,1.54305496692567E-15,122.6));
#456=CARTESIAN_POINT('',(57.,-1.54305496692567E-15,122.6));
#457=CARTESIAN_POINT('Origin',(57.,0.,110.));
#458=CARTESIAN_POINT('Origin',(57.,0.,110.));
#459=CARTESIAN_POINT('',(57.,-30.,110.));
#460=CARTESIAN_POINT('',(57.,30.,110.));
#461=CARTESIAN_POINT('Origin',(57.,0.,110.));
#462=CARTESIAN_POINT('',(47.,30.,110.));
#463=CARTESIAN_POINT('',(57.,30.,110.));
#464=CARTESIAN_POINT('',(47.,-30.,110.));
#465=CARTESIAN_POINT('Origin',(47.,0.,110.));
#466=CARTESIAN_POINT('',(57.,-30.,110.));
#467=CARTESIAN_POINT('Origin',(47.,-4.44089209850063E-15,81.));
#468=CARTESIAN_POINT('',(47.,-30.,22.));
#469=CARTESIAN_POINT('',(47.,-30.,22.));
#470=CARTESIAN_POINT('',(47.,30.,22.));
#471=CARTESIAN_POINT('',(47.,30.,110.));
#472=CARTESIAN_POINT('',(47.,0.,22.));
#473=CARTESIAN_POINT('Origin',(0.,4.44089209850063E-15,22.));
#474=CARTESIAN_POINT('',(-47.,30.,22.));
#475=CARTESIAN_POINT('',(57.,30.,22.));
#476=CARTESIAN_POINT('',(-47.,-30.,22.));
#477=CARTESIAN_POINT('',(-47.,0.,22.));
#478=CARTESIAN_POINT('',(-57.,-30.,22.));
#479=CARTESIAN_POINT('Origin',(133.252463847384,0.,85.));
#480=CARTESIAN_POINT('',(-57.,-3.06161699786838E-16,82.5));
#481=CARTESIAN_POINT('Origin',(-57.,0.,85.));
#482=CARTESIAN_POINT('',(-47.,-3.06161699786838E-16,82.5));
#483=CARTESIAN_POINT('',(133.252463847384,-3.06161699786838E-16,82.5));
#484=CARTESIAN_POINT('Origin',(-47.,0.,85.));
#485=CARTESIAN_POINT('Origin',(-57.,0.,110.));
#486=CARTESIAN_POINT('',(-47.,0.,122.6));
#487=CARTESIAN_POINT('Origin',(-47.,0.,110.));
#488=CARTESIAN_POINT('',(-57.,1.54305496692567E-15,122.6));
#489=CARTESIAN_POINT('',(-57.,-1.54305496692567E-15,122.6));
#490=CARTESIAN_POINT('Origin',(-57.,0.,110.));
#491=CARTESIAN_POINT('Origin',(-57.,0.,110.));
#492=CARTESIAN_POINT('',(-57.,-30.,110.));
#493=CARTESIAN_POINT('',(-57.,30.,110.));
#494=CARTESIAN_POINT('Origin',(-57.,0.,110.));
#495=CARTESIAN_POINT('',(-47.,-30.,110.));
#496=CARTESIAN_POINT('',(-57.,-30.,110.));
#497=CARTESIAN_POINT('',(-47.,30.,110.));
#498=CARTESIAN_POINT('Origin',(-47.,0.,110.));
#499=CARTESIAN_POINT('',(-57.,30.,110.));
#500=CARTESIAN_POINT('Origin',(-47.,-4.44089209850063E-15,81.));
#501=CARTESIAN_POINT('',(-47.,-30.,22.));
#502=CARTESIAN_POINT('',(-47.,30.,110.));
#503=CARTESIAN_POINT('Origin',(57.,-30.,0.));
#504=CARTESIAN_POINT('',(57.,-30.,0.));
#505=CARTESIAN_POINT('',(57.,30.,0.));
#506=CARTESIAN_POINT('',(57.,-30.,0.));
#507=CARTESIAN_POINT('',(57.,30.,0.));
#508=CARTESIAN_POINT('',(57.,-30.,0.));
#509=CARTESIAN_POINT('Origin',(-57.,-30.,0.));
#510=CARTESIAN_POINT('',(-57.,-30.,0.));
#511=CARTESIAN_POINT('',(-57.,-30.,0.));
#512=CARTESIAN_POINT('',(-57.,-30.,0.));
#513=CARTESIAN_POINT('Origin',(-57.,30.,0.));
#514=CARTESIAN_POINT('',(-57.,30.,0.));
#515=CARTESIAN_POINT('',(-57.,30.,0.));
#516=CARTESIAN_POINT('',(-57.,30.,0.));
#517=CARTESIAN_POINT('Origin',(57.,30.,0.));
#518=CARTESIAN_POINT('',(57.,30.,0.));
#519=CARTESIAN_POINT('Origin',(0.,2.22044604925031E-15,0.));
#520=UNCERTAINTY_MEASURE_WITH_UNIT(LENGTH_MEASURE(0.01),#524,
'DISTANCE_ACCURACY_VALUE',
'Maximum model space distance between geometric entities at asserted c
onnectivities');
#521=UNCERTAINTY_MEASURE_WITH_UNIT(LENGTH_MEASURE(0.01),#524,
'DISTANCE_ACCURACY_VALUE',
'Maximum model space distance between geometric entities at asserted c
onnectivities');
#522=(
GEOMETRIC_REPRESENTATION_CONTEXT(3)
GLOBAL_UNCERTAINTY_ASSIGNED_CONTEXT((#520))
GLOBAL_UNIT_ASSIGNED_CONTEXT((#524,#526,#527))
REPRESENTATION_CONTEXT('','3D')
);
#523=(
GEOMETRIC_REPRESENTATION_CONTEXT(3)
GLOBAL_UNCERTAINTY_ASSIGNED_CONTEXT((#521))
GLOBAL_UNIT_ASSIGNED_CONTEXT((#524,#526,#527))
REPRESENTATION_CONTEXT('','3D')
);
#524=(
LENGTH_UNIT()
NAMED_UNIT(*)
SI_UNIT(.MILLI.,.METRE.)
);
#525=(
LENGTH_UNIT()
NAMED_UNIT(*)
SI_UNIT(.CENTI.,.METRE.)
);
#526=(
NAMED_UNIT(*)
PLANE_ANGLE_UNIT()
SI_UNIT($,.RADIAN.)
);
#527=(
NAMED_UNIT(*)
SI_UNIT($,.STERADIAN.)
SOLID_ANGLE_UNIT()
);
#528=SHAPE_DEFINITION_REPRESENTATION(#529,#530);
#529=PRODUCT_DEFINITION_SHAPE('',$,#532);
#530=SHAPE_REPRESENTATION('',(#324),#522);
#531=PRODUCT_DEFINITION_CONTEXT('part definition',#536,'design');
#532=PRODUCT_DEFINITION('22051-05','Chape modifi\X\E9e',#533,#531);
#533=PRODUCT_DEFINITION_FORMATION('',$,#538);
#534=PRODUCT_RELATED_PRODUCT_CATEGORY('Chape modifi\X\E9e',
'Chape modifi\X\E9e',(#538));
#535=APPLICATION_PROTOCOL_DEFINITION('international standard',
'automotive_design',2009,#536);
#536=APPLICATION_CONTEXT(
'Core Data for Automotive Mechanical Design Process');
#537=PRODUCT_CONTEXT('part definition',#536,'mechanical');
#538=PRODUCT('22051-05','Chape modifi\X\E9e',$,(#537));
#539=PRESENTATION_STYLE_ASSIGNMENT((#540));
#540=SURFACE_STYLE_USAGE(.BOTH.,#543);
#541=SURFACE_STYLE_RENDERING_WITH_PROPERTIES($,#547,(#542));
#542=SURFACE_STYLE_TRANSPARENT(0.);
#543=SURFACE_SIDE_STYLE('',(#544,#541));
#544=SURFACE_STYLE_FILL_AREA(#545);
#545=FILL_AREA_STYLE('',(#546));
#546=FILL_AREA_STYLE_COLOUR('',#547);
#547=COLOUR_RGB('',0.811764705882353,0.309803921568627,0.);
ENDSEC;
END-ISO-10303-21;
