ISO-10303-21;
HEADER;
/* Generated by software containing ST-Developer
 * from STEP Tools, Inc. (www.steptools.com) 
 */

FILE_DESCRIPTION(
/* description */ (''),
/* implementation_level */ '2;1');

FILE_NAME(
/* name */ 'Moyeu_Volant_Gordini_Simplifi v3.step',
/* time_stamp */ '2023-02-01T21:13:35+01:00',
/* author */ (''),
/* organization */ (''),
/* preprocessor_version */ 'ST-DEVELOPER v19.2',
/* originating_system */ 'Autodesk Translation Framework v11.17.0.187',

/* authorisation */ '');

FILE_SCHEMA (('AUTOMOTIVE_DESIGN { 1 0 10303 214 3 1 1 }'));
ENDSEC;

DATA;
#10=MECHANICAL_DESIGN_GEOMETRIC_PRESENTATION_REPRESENTATION('',(#13),#611);
#11=SHAPE_REPRESENTATION_RELATIONSHIP('SRR','None',#618,#12);
#12=ADVANCED_BREP_SHAPE_REPRESENTATION('',(#14),#610);
#13=STYLED_ITEM('',(#627),#14);
#14=MANIFOLD_SOLID_BREP('Corps1',#345);
#15=FACE_BOUND('',#77,.T.);
#16=FACE_BOUND('',#78,.T.);
#17=FACE_BOUND('',#79,.T.);
#18=FACE_BOUND('',#80,.T.);
#19=FACE_BOUND('',#84,.T.);
#20=FACE_BOUND('',#85,.T.);
#21=FACE_BOUND('',#86,.T.);
#22=FACE_BOUND('',#87,.T.);
#23=FACE_BOUND('',#88,.T.);
#24=FACE_BOUND('',#89,.T.);
#25=FACE_BOUND('',#90,.T.);
#26=FACE_BOUND('',#92,.T.);
#27=FACE_BOUND('',#93,.T.);
#28=FACE_BOUND('',#94,.T.);
#29=FACE_BOUND('',#95,.T.);
#30=PLANE('',#395);
#31=PLANE('',#402);
#32=PLANE('',#403);
#33=CONICAL_SURFACE('',#368,1.1484038042735,1.02974425867665);
#34=CONICAL_SURFACE('',#372,1.1484038042735,1.02974425867665);
#35=CONICAL_SURFACE('',#376,1.1484038042735,1.02974425867665);
#36=CONICAL_SURFACE('',#380,1.1484038042735,1.02974425867665);
#37=CONICAL_SURFACE('',#384,1.1484038042735,1.02974425867665);
#38=CONICAL_SURFACE('',#388,1.1484038042735,1.02974425867665);
#39=FACE_OUTER_BOUND('',#60,.T.);
#40=FACE_OUTER_BOUND('',#61,.T.);
#41=FACE_OUTER_BOUND('',#62,.T.);
#42=FACE_OUTER_BOUND('',#63,.T.);
#43=FACE_OUTER_BOUND('',#64,.T.);
#44=FACE_OUTER_BOUND('',#65,.T.);
#45=FACE_OUTER_BOUND('',#66,.T.);
#46=FACE_OUTER_BOUND('',#67,.T.);
#47=FACE_OUTER_BOUND('',#68,.T.);
#48=FACE_OUTER_BOUND('',#69,.T.);
#49=FACE_OUTER_BOUND('',#70,.T.);
#50=FACE_OUTER_BOUND('',#71,.T.);
#51=FACE_OUTER_BOUND('',#72,.T.);
#52=FACE_OUTER_BOUND('',#73,.T.);
#53=FACE_OUTER_BOUND('',#74,.T.);
#54=FACE_OUTER_BOUND('',#75,.T.);
#55=FACE_OUTER_BOUND('',#76,.T.);
#56=FACE_OUTER_BOUND('',#81,.T.);
#57=FACE_OUTER_BOUND('',#82,.T.);
#58=FACE_OUTER_BOUND('',#83,.T.);
#59=FACE_OUTER_BOUND('',#91,.T.);
#60=EDGE_LOOP('',(#228,#229,#230,#231));
#61=EDGE_LOOP('',(#232,#233,#234,#235));
#62=EDGE_LOOP('',(#236,#237,#238,#239));
#63=EDGE_LOOP('',(#240,#241,#242));
#64=EDGE_LOOP('',(#243,#244,#245,#246));
#65=EDGE_LOOP('',(#247,#248,#249));
#66=EDGE_LOOP('',(#250,#251,#252,#253));
#67=EDGE_LOOP('',(#254,#255,#256));
#68=EDGE_LOOP('',(#257,#258,#259,#260));
#69=EDGE_LOOP('',(#261,#262,#263));
#70=EDGE_LOOP('',(#264,#265,#266,#267));
#71=EDGE_LOOP('',(#268,#269,#270));
#72=EDGE_LOOP('',(#271,#272,#273,#274));
#73=EDGE_LOOP('',(#275,#276,#277));
#74=EDGE_LOOP('',(#278,#279,#280,#281));
#75=EDGE_LOOP('',(#282,#283,#284,#285));
#76=EDGE_LOOP('',(#286));
#77=EDGE_LOOP('',(#287));
#78=EDGE_LOOP('',(#288));
#79=EDGE_LOOP('',(#289));
#80=EDGE_LOOP('',(#290));
#81=EDGE_LOOP('',(#291,#292,#293,#294));
#82=EDGE_LOOP('',(#295,#296,#297,#298));
#83=EDGE_LOOP('',(#299));
#84=EDGE_LOOP('',(#300));
#85=EDGE_LOOP('',(#301));
#86=EDGE_LOOP('',(#302));
#87=EDGE_LOOP('',(#303));
#88=EDGE_LOOP('',(#304));
#89=EDGE_LOOP('',(#305));
#90=EDGE_LOOP('',(#306));
#91=EDGE_LOOP('',(#307));
#92=EDGE_LOOP('',(#308));
#93=EDGE_LOOP('',(#309));
#94=EDGE_LOOP('',(#310));
#95=EDGE_LOOP('',(#311));
#96=LINE('',#519,#114);
#97=LINE('',#525,#115);
#98=LINE('',#531,#116);
#99=LINE('',#537,#117);
#100=LINE('',#541,#118);
#101=LINE('',#546,#119);
#102=LINE('',#550,#120);
#103=LINE('',#555,#121);
#104=LINE('',#559,#122);
#105=LINE('',#564,#123);
#106=LINE('',#568,#124);
#107=LINE('',#573,#125);
#108=LINE('',#577,#126);
#109=LINE('',#582,#127);
#110=LINE('',#586,#128);
#111=LINE('',#591,#129);
#112=LINE('',#598,#130);
#113=LINE('',#604,#131);
#114=VECTOR('',#410,3.);
#115=VECTOR('',#417,3.);
#116=VECTOR('',#424,3.);
#117=VECTOR('',#431,1.25);
#118=VECTOR('',#436,2.5);
#119=VECTOR('',#441,1.25);
#120=VECTOR('',#446,2.5);
#121=VECTOR('',#451,1.25);
#122=VECTOR('',#456,2.5);
#123=VECTOR('',#461,1.25);
#124=VECTOR('',#466,2.5);
#125=VECTOR('',#471,1.25);
#126=VECTOR('',#476,2.5);
#127=VECTOR('',#481,1.25);
#128=VECTOR('',#486,2.5);
#129=VECTOR('',#491,30.1);
#130=VECTOR('',#500,20.5);
#131=VECTOR('',#507,40.);
#132=CIRCLE('',#360,2.5175);
#133=CIRCLE('',#361,2.5175);
#134=CIRCLE('',#363,2.5175);
#135=CIRCLE('',#364,2.5175);
#136=CIRCLE('',#366,2.5175);
#137=CIRCLE('',#367,2.5175);
#138=CIRCLE('',#369,2.117);
#139=CIRCLE('',#371,2.117);
#140=CIRCLE('',#373,2.117);
#141=CIRCLE('',#375,2.117);
#142=CIRCLE('',#377,2.117);
#143=CIRCLE('',#379,2.117);
#144=CIRCLE('',#381,2.117);
#145=CIRCLE('',#383,2.117);
#146=CIRCLE('',#385,2.117);
#147=CIRCLE('',#387,2.117);
#148=CIRCLE('',#389,2.117);
#149=CIRCLE('',#391,2.117);
#150=CIRCLE('',#393,30.1);
#151=CIRCLE('',#394,30.1);
#152=CIRCLE('',#396,20.5);
#153=CIRCLE('',#398,20.5);
#154=CIRCLE('',#400,40.);
#155=CIRCLE('',#401,40.);
#156=VERTEX_POINT('',#516);
#157=VERTEX_POINT('',#518);
#158=VERTEX_POINT('',#522);
#159=VERTEX_POINT('',#524);
#160=VERTEX_POINT('',#528);
#161=VERTEX_POINT('',#530);
#162=VERTEX_POINT('',#534);
#163=VERTEX_POINT('',#536);
#164=VERTEX_POINT('',#539);
#165=VERTEX_POINT('',#543);
#166=VERTEX_POINT('',#545);
#167=VERTEX_POINT('',#548);
#168=VERTEX_POINT('',#552);
#169=VERTEX_POINT('',#554);
#170=VERTEX_POINT('',#557);
#171=VERTEX_POINT('',#561);
#172=VERTEX_POINT('',#563);
#173=VERTEX_POINT('',#566);
#174=VERTEX_POINT('',#570);
#175=VERTEX_POINT('',#572);
#176=VERTEX_POINT('',#575);
#177=VERTEX_POINT('',#579);
#178=VERTEX_POINT('',#581);
#179=VERTEX_POINT('',#584);
#180=VERTEX_POINT('',#588);
#181=VERTEX_POINT('',#590);
#182=VERTEX_POINT('',#594);
#183=VERTEX_POINT('',#597);
#184=VERTEX_POINT('',#601);
#185=VERTEX_POINT('',#603);
#186=EDGE_CURVE('',#156,#156,#132,.T.);
#187=EDGE_CURVE('',#156,#157,#96,.T.);
#188=EDGE_CURVE('',#157,#157,#133,.F.);
#189=EDGE_CURVE('',#158,#158,#134,.T.);
#190=EDGE_CURVE('',#158,#159,#97,.T.);
#191=EDGE_CURVE('',#159,#159,#135,.F.);
#192=EDGE_CURVE('',#160,#160,#136,.T.);
#193=EDGE_CURVE('',#160,#161,#98,.T.);
#194=EDGE_CURVE('',#161,#161,#137,.F.);
#195=EDGE_CURVE('',#162,#162,#138,.T.);
#196=EDGE_CURVE('',#162,#163,#99,.T.);
#197=EDGE_CURVE('',#164,#164,#139,.T.);
#198=EDGE_CURVE('',#164,#162,#100,.T.);
#199=EDGE_CURVE('',#165,#165,#140,.T.);
#200=EDGE_CURVE('',#165,#166,#101,.T.);
#201=EDGE_CURVE('',#167,#167,#141,.T.);
#202=EDGE_CURVE('',#167,#165,#102,.T.);
#203=EDGE_CURVE('',#168,#168,#142,.T.);
#204=EDGE_CURVE('',#168,#169,#103,.T.);
#205=EDGE_CURVE('',#170,#170,#143,.T.);
#206=EDGE_CURVE('',#170,#168,#104,.T.);
#207=EDGE_CURVE('',#171,#171,#144,.T.);
#208=EDGE_CURVE('',#171,#172,#105,.T.);
#209=EDGE_CURVE('',#173,#173,#145,.T.);
#210=EDGE_CURVE('',#173,#171,#106,.T.);
#211=EDGE_CURVE('',#174,#174,#146,.T.);
#212=EDGE_CURVE('',#174,#175,#107,.T.);
#213=EDGE_CURVE('',#176,#176,#147,.T.);
#214=EDGE_CURVE('',#176,#174,#108,.T.);
#215=EDGE_CURVE('',#177,#177,#148,.T.);
#216=EDGE_CURVE('',#177,#178,#109,.T.);
#217=EDGE_CURVE('',#179,#179,#149,.T.);
#218=EDGE_CURVE('',#179,#177,#110,.T.);
#219=EDGE_CURVE('',#180,#180,#150,.T.);
#220=EDGE_CURVE('',#180,#181,#111,.T.);
#221=EDGE_CURVE('',#181,#181,#151,.T.);
#222=EDGE_CURVE('',#182,#182,#152,.T.);
#223=EDGE_CURVE('',#182,#183,#112,.T.);
#224=EDGE_CURVE('',#183,#183,#153,.T.);
#225=EDGE_CURVE('',#184,#184,#154,.T.);
#226=EDGE_CURVE('',#184,#185,#113,.T.);
#227=EDGE_CURVE('',#185,#185,#155,.T.);
#228=ORIENTED_EDGE('',*,*,#186,.F.);
#229=ORIENTED_EDGE('',*,*,#187,.T.);
#230=ORIENTED_EDGE('',*,*,#188,.F.);
#231=ORIENTED_EDGE('',*,*,#187,.F.);
#232=ORIENTED_EDGE('',*,*,#189,.F.);
#233=ORIENTED_EDGE('',*,*,#190,.T.);
#234=ORIENTED_EDGE('',*,*,#191,.F.);
#235=ORIENTED_EDGE('',*,*,#190,.F.);
#236=ORIENTED_EDGE('',*,*,#192,.F.);
#237=ORIENTED_EDGE('',*,*,#193,.T.);
#238=ORIENTED_EDGE('',*,*,#194,.F.);
#239=ORIENTED_EDGE('',*,*,#193,.F.);
#240=ORIENTED_EDGE('',*,*,#195,.F.);
#241=ORIENTED_EDGE('',*,*,#196,.T.);
#242=ORIENTED_EDGE('',*,*,#196,.F.);
#243=ORIENTED_EDGE('',*,*,#197,.F.);
#244=ORIENTED_EDGE('',*,*,#198,.T.);
#245=ORIENTED_EDGE('',*,*,#195,.T.);
#246=ORIENTED_EDGE('',*,*,#198,.F.);
#247=ORIENTED_EDGE('',*,*,#199,.F.);
#248=ORIENTED_EDGE('',*,*,#200,.T.);
#249=ORIENTED_EDGE('',*,*,#200,.F.);
#250=ORIENTED_EDGE('',*,*,#201,.F.);
#251=ORIENTED_EDGE('',*,*,#202,.T.);
#252=ORIENTED_EDGE('',*,*,#199,.T.);
#253=ORIENTED_EDGE('',*,*,#202,.F.);
#254=ORIENTED_EDGE('',*,*,#203,.F.);
#255=ORIENTED_EDGE('',*,*,#204,.T.);
#256=ORIENTED_EDGE('',*,*,#204,.F.);
#257=ORIENTED_EDGE('',*,*,#205,.F.);
#258=ORIENTED_EDGE('',*,*,#206,.T.);
#259=ORIENTED_EDGE('',*,*,#203,.T.);
#260=ORIENTED_EDGE('',*,*,#206,.F.);
#261=ORIENTED_EDGE('',*,*,#207,.F.);
#262=ORIENTED_EDGE('',*,*,#208,.T.);
#263=ORIENTED_EDGE('',*,*,#208,.F.);
#264=ORIENTED_EDGE('',*,*,#209,.F.);
#265=ORIENTED_EDGE('',*,*,#210,.T.);
#266=ORIENTED_EDGE('',*,*,#207,.T.);
#267=ORIENTED_EDGE('',*,*,#210,.F.);
#268=ORIENTED_EDGE('',*,*,#211,.F.);
#269=ORIENTED_EDGE('',*,*,#212,.T.);
#270=ORIENTED_EDGE('',*,*,#212,.F.);
#271=ORIENTED_EDGE('',*,*,#213,.F.);
#272=ORIENTED_EDGE('',*,*,#214,.T.);
#273=ORIENTED_EDGE('',*,*,#211,.T.);
#274=ORIENTED_EDGE('',*,*,#214,.F.);
#275=ORIENTED_EDGE('',*,*,#215,.F.);
#276=ORIENTED_EDGE('',*,*,#216,.T.);
#277=ORIENTED_EDGE('',*,*,#216,.F.);
#278=ORIENTED_EDGE('',*,*,#217,.F.);
#279=ORIENTED_EDGE('',*,*,#218,.T.);
#280=ORIENTED_EDGE('',*,*,#215,.T.);
#281=ORIENTED_EDGE('',*,*,#218,.F.);
#282=ORIENTED_EDGE('',*,*,#219,.F.);
#283=ORIENTED_EDGE('',*,*,#220,.T.);
#284=ORIENTED_EDGE('',*,*,#221,.T.);
#285=ORIENTED_EDGE('',*,*,#220,.F.);
#286=ORIENTED_EDGE('',*,*,#221,.F.);
#287=ORIENTED_EDGE('',*,*,#186,.T.);
#288=ORIENTED_EDGE('',*,*,#189,.T.);
#289=ORIENTED_EDGE('',*,*,#192,.T.);
#290=ORIENTED_EDGE('',*,*,#222,.F.);
#291=ORIENTED_EDGE('',*,*,#222,.T.);
#292=ORIENTED_EDGE('',*,*,#223,.T.);
#293=ORIENTED_EDGE('',*,*,#224,.F.);
#294=ORIENTED_EDGE('',*,*,#223,.F.);
#295=ORIENTED_EDGE('',*,*,#225,.F.);
#296=ORIENTED_EDGE('',*,*,#226,.T.);
#297=ORIENTED_EDGE('',*,*,#227,.T.);
#298=ORIENTED_EDGE('',*,*,#226,.F.);
#299=ORIENTED_EDGE('',*,*,#225,.T.);
#300=ORIENTED_EDGE('',*,*,#197,.T.);
#301=ORIENTED_EDGE('',*,*,#201,.T.);
#302=ORIENTED_EDGE('',*,*,#205,.T.);
#303=ORIENTED_EDGE('',*,*,#209,.T.);
#304=ORIENTED_EDGE('',*,*,#213,.T.);
#305=ORIENTED_EDGE('',*,*,#217,.T.);
#306=ORIENTED_EDGE('',*,*,#219,.T.);
#307=ORIENTED_EDGE('',*,*,#227,.F.);
#308=ORIENTED_EDGE('',*,*,#188,.T.);
#309=ORIENTED_EDGE('',*,*,#191,.T.);
#310=ORIENTED_EDGE('',*,*,#194,.T.);
#311=ORIENTED_EDGE('',*,*,#224,.T.);
#312=CYLINDRICAL_SURFACE('',#359,2.5175);
#313=CYLINDRICAL_SURFACE('',#362,2.5175);
#314=CYLINDRICAL_SURFACE('',#365,2.5175);
#315=CYLINDRICAL_SURFACE('',#370,2.117);
#316=CYLINDRICAL_SURFACE('',#374,2.117);
#317=CYLINDRICAL_SURFACE('',#378,2.117);
#318=CYLINDRICAL_SURFACE('',#382,2.117);
#319=CYLINDRICAL_SURFACE('',#386,2.117);
#320=CYLINDRICAL_SURFACE('',#390,2.117);
#321=CYLINDRICAL_SURFACE('',#392,30.1);
#322=CYLINDRICAL_SURFACE('',#397,20.5);
#323=CYLINDRICAL_SURFACE('',#399,40.);
#324=ADVANCED_FACE('',(#39),#312,.F.);
#325=ADVANCED_FACE('',(#40),#313,.F.);
#326=ADVANCED_FACE('',(#41),#314,.F.);
#327=ADVANCED_FACE('',(#42),#33,.F.);
#328=ADVANCED_FACE('',(#43),#315,.F.);
#329=ADVANCED_FACE('',(#44),#34,.F.);
#330=ADVANCED_FACE('',(#45),#316,.F.);
#331=ADVANCED_FACE('',(#46),#35,.F.);
#332=ADVANCED_FACE('',(#47),#317,.F.);
#333=ADVANCED_FACE('',(#48),#36,.F.);
#334=ADVANCED_FACE('',(#49),#318,.F.);
#335=ADVANCED_FACE('',(#50),#37,.F.);
#336=ADVANCED_FACE('',(#51),#319,.F.);
#337=ADVANCED_FACE('',(#52),#38,.F.);
#338=ADVANCED_FACE('',(#53),#320,.F.);
#339=ADVANCED_FACE('',(#54),#321,.F.);
#340=ADVANCED_FACE('',(#55,#15,#16,#17,#18),#30,.T.);
#341=ADVANCED_FACE('',(#56),#322,.F.);
#342=ADVANCED_FACE('',(#57),#323,.T.);
#343=ADVANCED_FACE('',(#58,#19,#20,#21,#22,#23,#24,#25),#31,.T.);
#344=ADVANCED_FACE('',(#59,#26,#27,#28,#29),#32,.F.);
#345=CLOSED_SHELL('',(#324,#325,#326,#327,#328,#329,#330,#331,#332,#333,
#334,#335,#336,#337,#338,#339,#340,#341,#342,#343,#344));
#346=DERIVED_UNIT_ELEMENT(#348,1.);
#347=DERIVED_UNIT_ELEMENT(#613,-3.);
#348=(
MASS_UNIT()
NAMED_UNIT(*)
SI_UNIT(.KILO.,.GRAM.)
);
#349=DERIVED_UNIT((#346,#347));
#350=MEASURE_REPRESENTATION_ITEM('density measure',
POSITIVE_RATIO_MEASURE(7850.),#349);
#351=PROPERTY_DEFINITION_REPRESENTATION(#356,#353);
#352=PROPERTY_DEFINITION_REPRESENTATION(#357,#354);
#353=REPRESENTATION('material name',(#355),#610);
#354=REPRESENTATION('density',(#350),#610);
#355=DESCRIPTIVE_REPRESENTATION_ITEM('Acier','Acier');
#356=PROPERTY_DEFINITION('material property','material name',#620);
#357=PROPERTY_DEFINITION('material property','density of part',#620);
#358=AXIS2_PLACEMENT_3D('placement',#514,#404,#405);
#359=AXIS2_PLACEMENT_3D('',#515,#406,#407);
#360=AXIS2_PLACEMENT_3D('',#517,#408,#409);
#361=AXIS2_PLACEMENT_3D('',#520,#411,#412);
#362=AXIS2_PLACEMENT_3D('',#521,#413,#414);
#363=AXIS2_PLACEMENT_3D('',#523,#415,#416);
#364=AXIS2_PLACEMENT_3D('',#526,#418,#419);
#365=AXIS2_PLACEMENT_3D('',#527,#420,#421);
#366=AXIS2_PLACEMENT_3D('',#529,#422,#423);
#367=AXIS2_PLACEMENT_3D('',#532,#425,#426);
#368=AXIS2_PLACEMENT_3D('',#533,#427,#428);
#369=AXIS2_PLACEMENT_3D('',#535,#429,#430);
#370=AXIS2_PLACEMENT_3D('',#538,#432,#433);
#371=AXIS2_PLACEMENT_3D('',#540,#434,#435);
#372=AXIS2_PLACEMENT_3D('',#542,#437,#438);
#373=AXIS2_PLACEMENT_3D('',#544,#439,#440);
#374=AXIS2_PLACEMENT_3D('',#547,#442,#443);
#375=AXIS2_PLACEMENT_3D('',#549,#444,#445);
#376=AXIS2_PLACEMENT_3D('',#551,#447,#448);
#377=AXIS2_PLACEMENT_3D('',#553,#449,#450);
#378=AXIS2_PLACEMENT_3D('',#556,#452,#453);
#379=AXIS2_PLACEMENT_3D('',#558,#454,#455);
#380=AXIS2_PLACEMENT_3D('',#560,#457,#458);
#381=AXIS2_PLACEMENT_3D('',#562,#459,#460);
#382=AXIS2_PLACEMENT_3D('',#565,#462,#463);
#383=AXIS2_PLACEMENT_3D('',#567,#464,#465);
#384=AXIS2_PLACEMENT_3D('',#569,#467,#468);
#385=AXIS2_PLACEMENT_3D('',#571,#469,#470);
#386=AXIS2_PLACEMENT_3D('',#574,#472,#473);
#387=AXIS2_PLACEMENT_3D('',#576,#474,#475);
#388=AXIS2_PLACEMENT_3D('',#578,#477,#478);
#389=AXIS2_PLACEMENT_3D('',#580,#479,#480);
#390=AXIS2_PLACEMENT_3D('',#583,#482,#483);
#391=AXIS2_PLACEMENT_3D('',#585,#484,#485);
#392=AXIS2_PLACEMENT_3D('',#587,#487,#488);
#393=AXIS2_PLACEMENT_3D('',#589,#489,#490);
#394=AXIS2_PLACEMENT_3D('',#592,#492,#493);
#395=AXIS2_PLACEMENT_3D('',#593,#494,#495);
#396=AXIS2_PLACEMENT_3D('',#595,#496,#497);
#397=AXIS2_PLACEMENT_3D('',#596,#498,#499);
#398=AXIS2_PLACEMENT_3D('',#599,#501,#502);
#399=AXIS2_PLACEMENT_3D('',#600,#503,#504);
#400=AXIS2_PLACEMENT_3D('',#602,#505,#506);
#401=AXIS2_PLACEMENT_3D('',#605,#508,#509);
#402=AXIS2_PLACEMENT_3D('',#606,#510,#511);
#403=AXIS2_PLACEMENT_3D('',#607,#512,#513);
#404=DIRECTION('axis',(0.,0.,1.));
#405=DIRECTION('refdir',(1.,0.,0.));
#406=DIRECTION('center_axis',(0.,0.,-1.));
#407=DIRECTION('ref_axis',(-1.,0.,0.));
#408=DIRECTION('center_axis',(0.,0.,-1.));
#409=DIRECTION('ref_axis',(-1.,0.,0.));
#410=DIRECTION('',(0.,0.,-1.));
#411=DIRECTION('center_axis',(0.,0.,-1.));
#412=DIRECTION('ref_axis',(-1.,0.,0.));
#413=DIRECTION('center_axis',(0.,0.,-1.));
#414=DIRECTION('ref_axis',(-1.,0.,0.));
#415=DIRECTION('center_axis',(0.,0.,-1.));
#416=DIRECTION('ref_axis',(-1.,0.,0.));
#417=DIRECTION('',(0.,0.,-1.));
#418=DIRECTION('center_axis',(0.,0.,-1.));
#419=DIRECTION('ref_axis',(-1.,0.,0.));
#420=DIRECTION('center_axis',(0.,0.,-1.));
#421=DIRECTION('ref_axis',(-1.,0.,0.));
#422=DIRECTION('center_axis',(0.,0.,-1.));
#423=DIRECTION('ref_axis',(-1.,0.,0.));
#424=DIRECTION('',(0.,0.,-1.));
#425=DIRECTION('center_axis',(0.,0.,-1.));
#426=DIRECTION('ref_axis',(-1.,0.,0.));
#427=DIRECTION('center_axis',(0.,0.,1.));
#428=DIRECTION('ref_axis',(1.,0.,0.));
#429=DIRECTION('center_axis',(0.,0.,-1.));
#430=DIRECTION('ref_axis',(1.,0.,0.));
#431=DIRECTION('',(0.857167300702112,-1.04972719113862E-16,-0.515038074910054));
#432=DIRECTION('center_axis',(0.,0.,-1.));
#433=DIRECTION('ref_axis',(1.,0.,0.));
#434=DIRECTION('center_axis',(0.,0.,-1.));
#435=DIRECTION('ref_axis',(1.,0.,0.));
#436=DIRECTION('',(0.,0.,-1.));
#437=DIRECTION('center_axis',(0.,0.,1.));
#438=DIRECTION('ref_axis',(1.,0.,0.));
#439=DIRECTION('center_axis',(0.,0.,-1.));
#440=DIRECTION('ref_axis',(1.,0.,0.));
#441=DIRECTION('',(0.857167300702112,-1.04972719113862E-16,-0.515038074910054));
#442=DIRECTION('center_axis',(0.,0.,-1.));
#443=DIRECTION('ref_axis',(1.,0.,0.));
#444=DIRECTION('center_axis',(0.,0.,-1.));
#445=DIRECTION('ref_axis',(1.,0.,0.));
#446=DIRECTION('',(0.,0.,-1.));
#447=DIRECTION('center_axis',(0.,0.,1.));
#448=DIRECTION('ref_axis',(1.,0.,0.));
#449=DIRECTION('center_axis',(0.,0.,-1.));
#450=DIRECTION('ref_axis',(1.,0.,0.));
#451=DIRECTION('',(0.857167300702112,-1.04972719113862E-16,-0.515038074910054));
#452=DIRECTION('center_axis',(0.,0.,-1.));
#453=DIRECTION('ref_axis',(1.,0.,0.));
#454=DIRECTION('center_axis',(0.,0.,-1.));
#455=DIRECTION('ref_axis',(1.,0.,0.));
#456=DIRECTION('',(0.,0.,-1.));
#457=DIRECTION('center_axis',(0.,0.,1.));
#458=DIRECTION('ref_axis',(1.,0.,0.));
#459=DIRECTION('center_axis',(0.,0.,-1.));
#460=DIRECTION('ref_axis',(1.,0.,0.));
#461=DIRECTION('',(0.857167300702112,-1.04972719113862E-16,-0.515038074910054));
#462=DIRECTION('center_axis',(0.,0.,-1.));
#463=DIRECTION('ref_axis',(1.,0.,0.));
#464=DIRECTION('center_axis',(0.,0.,-1.));
#465=DIRECTION('ref_axis',(1.,0.,0.));
#466=DIRECTION('',(0.,0.,-1.));
#467=DIRECTION('center_axis',(0.,0.,1.));
#468=DIRECTION('ref_axis',(1.,0.,0.));
#469=DIRECTION('center_axis',(0.,0.,-1.));
#470=DIRECTION('ref_axis',(1.,0.,0.));
#471=DIRECTION('',(0.857167300702112,-1.04972719113862E-16,-0.515038074910054));
#472=DIRECTION('center_axis',(0.,0.,-1.));
#473=DIRECTION('ref_axis',(1.,0.,0.));
#474=DIRECTION('center_axis',(0.,0.,-1.));
#475=DIRECTION('ref_axis',(1.,0.,0.));
#476=DIRECTION('',(0.,0.,-1.));
#477=DIRECTION('center_axis',(0.,0.,1.));
#478=DIRECTION('ref_axis',(1.,0.,0.));
#479=DIRECTION('center_axis',(0.,0.,-1.));
#480=DIRECTION('ref_axis',(1.,0.,0.));
#481=DIRECTION('',(0.857167300702112,-1.04972719113862E-16,-0.515038074910054));
#482=DIRECTION('center_axis',(0.,0.,-1.));
#483=DIRECTION('ref_axis',(1.,0.,0.));
#484=DIRECTION('center_axis',(0.,0.,-1.));
#485=DIRECTION('ref_axis',(1.,0.,0.));
#486=DIRECTION('',(0.,0.,-1.));
#487=DIRECTION('center_axis',(0.,0.,-1.));
#488=DIRECTION('ref_axis',(-1.,0.,0.));
#489=DIRECTION('center_axis',(0.,0.,-1.));
#490=DIRECTION('ref_axis',(-1.,0.,0.));
#491=DIRECTION('',(0.,0.,-1.));
#492=DIRECTION('center_axis',(0.,0.,-1.));
#493=DIRECTION('ref_axis',(-1.,0.,0.));
#494=DIRECTION('center_axis',(0.,0.,1.));
#495=DIRECTION('ref_axis',(-1.,0.,0.));
#496=DIRECTION('center_axis',(0.,0.,1.));
#497=DIRECTION('ref_axis',(-1.,0.,0.));
#498=DIRECTION('center_axis',(0.,0.,-1.));
#499=DIRECTION('ref_axis',(-1.,0.,0.));
#500=DIRECTION('',(0.,0.,-1.));
#501=DIRECTION('center_axis',(0.,0.,1.));
#502=DIRECTION('ref_axis',(-1.,0.,0.));
#503=DIRECTION('center_axis',(0.,0.,1.));
#504=DIRECTION('ref_axis',(1.,0.,0.));
#505=DIRECTION('center_axis',(0.,0.,1.));
#506=DIRECTION('ref_axis',(1.,0.,0.));
#507=DIRECTION('',(0.,0.,-1.));
#508=DIRECTION('center_axis',(0.,0.,1.));
#509=DIRECTION('ref_axis',(1.,0.,0.));
#510=DIRECTION('center_axis',(0.,0.,1.));
#511=DIRECTION('ref_axis',(1.,0.,0.));
#512=DIRECTION('center_axis',(0.,0.,1.));
#513=DIRECTION('ref_axis',(1.,0.,0.));
#514=CARTESIAN_POINT('',(0.,0.,0.));
#515=CARTESIAN_POINT('Origin',(12.5000001862645,-21.6506354172306,10.));
#516=CARTESIAN_POINT('',(15.0175001862645,-21.6506354172306,10.));
#517=CARTESIAN_POINT('Origin',(12.5000001862645,-21.6506354172306,10.));
#518=CARTESIAN_POINT('',(15.0175001862645,-21.6506354172306,0.));
#519=CARTESIAN_POINT('',(15.0175001862645,-21.6506354172306,10.));
#520=CARTESIAN_POINT('Origin',(12.5000001862645,-21.6506354172306,0.));
#521=CARTESIAN_POINT('Origin',(12.5000001862645,21.6506354172306,10.));
#522=CARTESIAN_POINT('',(15.0175001862645,21.6506354172306,10.));
#523=CARTESIAN_POINT('Origin',(12.5000001862645,21.6506354172306,10.));
#524=CARTESIAN_POINT('',(15.0175001862645,21.6506354172306,0.));
#525=CARTESIAN_POINT('',(15.0175001862645,21.6506354172306,10.));
#526=CARTESIAN_POINT('Origin',(12.5000001862645,21.6506354172306,0.));
#527=CARTESIAN_POINT('Origin',(-25.000000372529,0.,10.));
#528=CARTESIAN_POINT('',(-22.482500372529,-3.08304831685346E-16,10.));
#529=CARTESIAN_POINT('Origin',(-25.000000372529,0.,10.));
#530=CARTESIAN_POINT('',(-22.482500372529,-3.08304831685346E-16,0.));
#531=CARTESIAN_POINT('',(-22.482500372529,-3.08304831685346E-16,10.));
#532=CARTESIAN_POINT('Origin',(-25.000000372529,0.,0.));
#533=CARTESIAN_POINT('Origin',(30.3108891324554,-17.5,14.418008690248));
#534=CARTESIAN_POINT('',(28.1938891324554,-17.5,15.));
#535=CARTESIAN_POINT('Origin',(30.3108891324554,-17.5,15.));
#536=CARTESIAN_POINT('',(30.3108891324554,-17.5,13.7279780695187));
#537=CARTESIAN_POINT('',(29.1624853281819,-17.5,14.418008690248));
#538=CARTESIAN_POINT('Origin',(30.3108891324554,-17.5,22.5));
#539=CARTESIAN_POINT('',(28.1938891324554,-17.5,30.));
#540=CARTESIAN_POINT('Origin',(30.3108891324554,-17.5,30.));
#541=CARTESIAN_POINT('',(28.1938891324554,-17.5,22.5));
#542=CARTESIAN_POINT('Origin',(4.28626379701574E-15,35.,14.418008690248));
#543=CARTESIAN_POINT('',(-2.117,35.,15.));
#544=CARTESIAN_POINT('Origin',(4.28626379701574E-15,35.,15.));
#545=CARTESIAN_POINT('',(4.41376223152289E-15,35.,13.7279780695187));
#546=CARTESIAN_POINT('',(-1.14840380427349,35.,14.418008690248));
#547=CARTESIAN_POINT('Origin',(4.28626379701574E-15,35.,22.5));
#548=CARTESIAN_POINT('',(-2.117,35.,30.));
#549=CARTESIAN_POINT('Origin',(4.28626379701574E-15,35.,30.));
#550=CARTESIAN_POINT('',(-2.117,35.,22.5));
#551=CARTESIAN_POINT('Origin',(-30.3108891324554,-17.5,14.418008690248));
#552=CARTESIAN_POINT('',(-32.4278891324554,-17.5,15.));
#553=CARTESIAN_POINT('Origin',(-30.3108891324554,-17.5,15.));
#554=CARTESIAN_POINT('',(-30.3108891324554,-17.5,13.7279780695187));
#555=CARTESIAN_POINT('',(-31.4592929367289,-17.5,14.418008690248));
#556=CARTESIAN_POINT('Origin',(-30.3108891324554,-17.5,22.5));
#557=CARTESIAN_POINT('',(-32.4278891324554,-17.5,30.));
#558=CARTESIAN_POINT('Origin',(-30.3108891324554,-17.5,30.));
#559=CARTESIAN_POINT('',(-32.4278891324554,-17.5,22.5));
#560=CARTESIAN_POINT('Origin',(-30.3108891324553,17.5,14.418008690248));
#561=CARTESIAN_POINT('',(-32.4278891324553,17.5,15.));
#562=CARTESIAN_POINT('Origin',(-30.3108891324553,17.5,15.));
#563=CARTESIAN_POINT('',(-30.3108891324553,17.5,13.7279780695187));
#564=CARTESIAN_POINT('',(-31.4592929367288,17.5,14.418008690248));
#565=CARTESIAN_POINT('Origin',(-30.3108891324553,17.5,22.5));
#566=CARTESIAN_POINT('',(-32.4278891324553,17.5,30.));
#567=CARTESIAN_POINT('Origin',(-30.3108891324553,17.5,30.));
#568=CARTESIAN_POINT('',(-32.4278891324553,17.5,22.5));
#569=CARTESIAN_POINT('Origin',(30.3108891324554,17.5,14.418008690248));
#570=CARTESIAN_POINT('',(28.1938891324554,17.5,15.));
#571=CARTESIAN_POINT('Origin',(30.3108891324554,17.5,15.));
#572=CARTESIAN_POINT('',(30.3108891324554,17.5,13.7279780695187));
#573=CARTESIAN_POINT('',(29.1624853281819,17.5,14.418008690248));
#574=CARTESIAN_POINT('Origin',(30.3108891324554,17.5,22.5));
#575=CARTESIAN_POINT('',(28.1938891324554,17.5,30.));
#576=CARTESIAN_POINT('Origin',(30.3108891324554,17.5,30.));
#577=CARTESIAN_POINT('',(28.1938891324554,17.5,22.5));
#578=CARTESIAN_POINT('Origin',(0.,-35.,14.418008690248));
#579=CARTESIAN_POINT('',(-2.117,-35.,15.));
#580=CARTESIAN_POINT('Origin',(0.,-35.,15.));
#581=CARTESIAN_POINT('',(1.27498434507156E-16,-35.,13.7279780695187));
#582=CARTESIAN_POINT('',(-1.1484038042735,-35.,14.418008690248));
#583=CARTESIAN_POINT('Origin',(0.,-35.,22.5));
#584=CARTESIAN_POINT('',(-2.117,-35.,30.));
#585=CARTESIAN_POINT('Origin',(0.,-35.,30.));
#586=CARTESIAN_POINT('',(-2.117,-35.,22.5));
#587=CARTESIAN_POINT('Origin',(0.,0.,30.));
#588=CARTESIAN_POINT('',(30.1,3.68618686543353E-15,30.));
#589=CARTESIAN_POINT('Origin',(0.,0.,30.));
#590=CARTESIAN_POINT('',(30.1,3.68618686543353E-15,10.));
#591=CARTESIAN_POINT('',(30.1,-3.68618686543353E-15,30.));
#592=CARTESIAN_POINT('Origin',(0.,0.,10.));
#593=CARTESIAN_POINT('Origin',(0.,0.,10.));
#594=CARTESIAN_POINT('',(20.5,2.51052593825207E-15,10.));
#595=CARTESIAN_POINT('Origin',(0.,0.,10.));
#596=CARTESIAN_POINT('Origin',(0.,0.,30.));
#597=CARTESIAN_POINT('',(20.5,2.51052593825207E-15,0.));
#598=CARTESIAN_POINT('',(20.5,-2.51052593825207E-15,30.));
#599=CARTESIAN_POINT('Origin',(0.,0.,0.));
#600=CARTESIAN_POINT('Origin',(0.,0.,0.));
#601=CARTESIAN_POINT('',(-40.,-4.89858719658941E-15,30.));
#602=CARTESIAN_POINT('Origin',(0.,0.,30.));
#603=CARTESIAN_POINT('',(-40.,-4.89858719658941E-15,0.));
#604=CARTESIAN_POINT('',(-40.,-4.89858719658941E-15,0.));
#605=CARTESIAN_POINT('Origin',(0.,0.,0.));
#606=CARTESIAN_POINT('Origin',(0.,0.,30.));
#607=CARTESIAN_POINT('Origin',(0.,0.,0.));
#608=UNCERTAINTY_MEASURE_WITH_UNIT(LENGTH_MEASURE(0.01),#612,
'DISTANCE_ACCURACY_VALUE',
'Maximum model space distance between geometric entities at asserted c
onnectivities');
#609=UNCERTAINTY_MEASURE_WITH_UNIT(LENGTH_MEASURE(0.01),#612,
'DISTANCE_ACCURACY_VALUE',
'Maximum model space distance between geometric entities at asserted c
onnectivities');
#610=(
GEOMETRIC_REPRESENTATION_CONTEXT(3)
GLOBAL_UNCERTAINTY_ASSIGNED_CONTEXT((#608))
GLOBAL_UNIT_ASSIGNED_CONTEXT((#612,#614,#615))
REPRESENTATION_CONTEXT('','3D')
);
#611=(
GEOMETRIC_REPRESENTATION_CONTEXT(3)
GLOBAL_UNCERTAINTY_ASSIGNED_CONTEXT((#609))
GLOBAL_UNIT_ASSIGNED_CONTEXT((#612,#614,#615))
REPRESENTATION_CONTEXT('','3D')
);
#612=(
LENGTH_UNIT()
NAMED_UNIT(*)
SI_UNIT(.MILLI.,.METRE.)
);
#613=(
LENGTH_UNIT()
NAMED_UNIT(*)
SI_UNIT($,.METRE.)
);
#614=(
NAMED_UNIT(*)
PLANE_ANGLE_UNIT()
SI_UNIT($,.RADIAN.)
);
#615=(
NAMED_UNIT(*)
SI_UNIT($,.STERADIAN.)
SOLID_ANGLE_UNIT()
);
#616=SHAPE_DEFINITION_REPRESENTATION(#617,#618);
#617=PRODUCT_DEFINITION_SHAPE('',$,#620);
#618=SHAPE_REPRESENTATION('',(#358),#610);
#619=PRODUCT_DEFINITION_CONTEXT('part definition',#624,'design');
#620=PRODUCT_DEFINITION('Moyeu_Volant_Gordini_Simplifi\X\E9',
'Moyeu_Volant_Gordini_Simplifi\X\E9 v3',#621,#619);
#621=PRODUCT_DEFINITION_FORMATION('',$,#626);
#622=PRODUCT_RELATED_PRODUCT_CATEGORY(
'Moyeu_Volant_Gordini_Simplifi\X\E9 v3',
'Moyeu_Volant_Gordini_Simplifi\X\E9 v3',(#626));
#623=APPLICATION_PROTOCOL_DEFINITION('international standard',
'automotive_design',2009,#624);
#624=APPLICATION_CONTEXT(
'Core Data for Automotive Mechanical Design Process');
#625=PRODUCT_CONTEXT('part definition',#624,'mechanical');
#626=PRODUCT('Moyeu_Volant_Gordini_Simplifi\X\E9',
'Moyeu_Volant_Gordini_Simplifi\X\E9 v3',$,(#625));
#627=PRESENTATION_STYLE_ASSIGNMENT((#628));
#628=SURFACE_STYLE_USAGE(.BOTH.,#629);
#629=SURFACE_SIDE_STYLE('',(#630));
#630=SURFACE_STYLE_FILL_AREA(#631);
#631=FILL_AREA_STYLE('Acier - Satin\X\E9',(#632));
#632=FILL_AREA_STYLE_COLOUR('Acier - Satin\X\E9',#633);
#633=COLOUR_RGB('Acier - Satin\X\E9',0.627450980392157,0.627450980392157,
0.627450980392157);
ENDSEC;
END-ISO-10303-21;
