ISO-10303-21;
HEADER;

/* File generated by Shapr3D Version 3.0 */

FILE_DESCRIPTION(('HOOPS Exchange Step'),'2;1');

FILE_NAME('C:\\Users\\andre\\AppData\\Local\\Packages\\Shapr3D.Shapr3D_dvv5p1vgwv6mp\\TempState\\export\\temp_export',
'2023-02-08T10:08:48+01:00',
('andre'),
('Shapr3D Limited'),
'HOOPS Exchange 2022.2',
'Shapr3D',
'Authorized');

FILE_SCHEMA( ('AUTOMOTIVE_DESIGN { 1 0 10303 214 1 1 1 1 }') );

ENDSEC;

DATA;
#3=(NAMED_UNIT(*)PLANE_ANGLE_UNIT()SI_UNIT($,.RADIAN.));
#4=PLANE_ANGLE_MEASURE_WITH_UNIT(PLANE_ANGLE_MEASURE(0.0174532925),#3);
#5=(CONVERSION_BASED_UNIT('DEGREE',#4)NAMED_UNIT(#6)PLANE_ANGLE_UNIT());
#6=DIMENSIONAL_EXPONENTS(0.,0.,0.,0.,0.,0.,0.);
#7=(NAMED_UNIT(*)SI_UNIT($,.STERADIAN.)SOLID_ANGLE_UNIT());
#8=(LENGTH_UNIT()NAMED_UNIT(*)SI_UNIT(.MILLI.,.METRE.));
#9=UNCERTAINTY_MEASURE_WITH_UNIT(LENGTH_MEASURE(1.000000E-05),#8,'DISTANCE_ACCURACY_VALUE','Maximum Tolerance applied to model');
#10=(GEOMETRIC_REPRESENTATION_CONTEXT(3)GLOBAL_UNCERTAINTY_ASSIGNED_CONTEXT((#9))GLOBAL_UNIT_ASSIGNED_CONTEXT((#8,#5,#7))REPRESENTATION_CONTEXT('','root'));
#12=CARTESIAN_POINT('',(0.,0.,0.));
#13=DIRECTION('',(0.,0.,1.));
#14=DIRECTION('',(1.,0.,0.));
#15=AXIS2_PLACEMENT_3D('',#12,#13,#14);
#27=CARTESIAN_POINT('',(0.,0.,-75.));
#28=DIRECTION('',(0.,0.,1.));
#29=DIRECTION('',(1.,0.,-0.));
#30=AXIS2_PLACEMENT_3D('',#27,#28,#29);
#31=CYLINDRICAL_SURFACE('',#30,35.);
#32=CARTESIAN_POINT('',(35.,0.,-74.));
#33=VERTEX_POINT('',#32);
#34=CARTESIAN_POINT('',(35.,0.,-75.));
#35=VERTEX_POINT('',#34);
#36=CARTESIAN_POINT('',(35.,0.,-74.));
#37=DIRECTION('',(-0.,-0.,-1.));
#38=VECTOR('',#37,1.);
#39=LINE('',#36,#38);
#40=EDGE_CURVE('',#33,#35,#39,.T.);
#41=ORIENTED_EDGE('',*,*,#40,.T.);
#42=CARTESIAN_POINT('',(-35.,-0.,-75.));
#43=VERTEX_POINT('',#42);
#44=CARTESIAN_POINT('',(0.,0.,-75.));
#45=DIRECTION('',(0.,0.,-1.));
#46=DIRECTION('',(-1.,0.,0.));
#47=AXIS2_PLACEMENT_3D('',#44,#45,#46);
#48=CIRCLE('',#47,35.);
#49=EDGE_CURVE('',#43,#35,#48,.T.);
#50=ORIENTED_EDGE('',*,*,#49,.F.);
#51=CARTESIAN_POINT('',(0.,0.,-75.));
#52=DIRECTION('',(0.,0.,-1.));
#53=DIRECTION('',(-1.,0.,0.));
#54=AXIS2_PLACEMENT_3D('',#51,#52,#53);
#55=CIRCLE('',#54,35.);
#56=EDGE_CURVE('',#35,#43,#55,.T.);
#57=ORIENTED_EDGE('',*,*,#56,.F.);
#58=ORIENTED_EDGE('',*,*,#40,.F.);
#59=CARTESIAN_POINT('',(-35.,-0.,-74.));
#60=VERTEX_POINT('',#59);
#61=CARTESIAN_POINT('',(0.,0.,-74.));
#62=DIRECTION('',(0.,0.,-1.));
#63=DIRECTION('',(-1.,0.,0.));
#64=AXIS2_PLACEMENT_3D('',#61,#62,#63);
#65=CIRCLE('',#64,35.);
#66=EDGE_CURVE('',#33,#60,#65,.T.);
#67=ORIENTED_EDGE('',*,*,#66,.T.);
#68=CARTESIAN_POINT('',(0.,0.,-74.));
#69=DIRECTION('',(0.,0.,-1.));
#70=DIRECTION('',(-1.,0.,0.));
#71=AXIS2_PLACEMENT_3D('',#68,#69,#70);
#72=CIRCLE('',#71,35.);
#73=EDGE_CURVE('',#60,#33,#72,.T.);
#74=ORIENTED_EDGE('',*,*,#73,.T.);
#75=EDGE_LOOP('',(#41,#50,#57,#58,#67,#74));
#76=FACE_BOUND('',#75,.T.);
#77=ADVANCED_FACE('',(#76),#31,.T.);
#78=CARTESIAN_POINT('',(0.,0.,-75.));
#79=DIRECTION('',(0.,0.,-1.));
#80=DIRECTION('',(-1.,0.,0.));
#81=AXIS2_PLACEMENT_3D('',#78,#79,#80);
#82=PLANE('',#81);
#83=CARTESIAN_POINT('',(-20.5,-0.,-75.));
#84=VERTEX_POINT('',#83);
#85=CARTESIAN_POINT('',(20.5,0.,-75.));
#86=VERTEX_POINT('',#85);
#87=CARTESIAN_POINT('',(0.,0.,-75.));
#88=DIRECTION('',(-0.,-0.,1.));
#89=DIRECTION('',(-1.,0.,0.));
#90=AXIS2_PLACEMENT_3D('',#87,#88,#89);
#91=CIRCLE('',#90,20.5);
#92=EDGE_CURVE('',#84,#86,#91,.T.);
#93=ORIENTED_EDGE('',*,*,#92,.T.);
#94=CARTESIAN_POINT('',(0.,0.,-75.));
#95=DIRECTION('',(-0.,-0.,1.));
#96=DIRECTION('',(-1.,0.,0.));
#97=AXIS2_PLACEMENT_3D('',#94,#95,#96);
#98=CIRCLE('',#97,20.5);
#99=EDGE_CURVE('',#86,#84,#98,.T.);
#100=ORIENTED_EDGE('',*,*,#99,.T.);
#101=EDGE_LOOP('',(#93,#100));
#102=FACE_BOUND('',#101,.T.);
#103=ORIENTED_EDGE('',*,*,#49,.T.);
#104=ORIENTED_EDGE('',*,*,#56,.T.);
#105=EDGE_LOOP('',(#103,#104));
#106=FACE_BOUND('',#105,.T.);
#107=ADVANCED_FACE('',(#102,#106),#82,.T.);
#108=CARTESIAN_POINT('',(0.,0.,-74.));
#109=DIRECTION('',(0.,0.,-1.));
#110=DIRECTION('',(-1.,0.,0.));
#111=AXIS2_PLACEMENT_3D('',#108,#109,#110);
#112=PLANE('',#111);
#113=CARTESIAN_POINT('',(-20.5,-0.,-74.));
#114=VERTEX_POINT('',#113);
#115=CARTESIAN_POINT('',(20.5,0.,-74.));
#116=VERTEX_POINT('',#115);
#117=CARTESIAN_POINT('',(0.,0.,-74.));
#118=DIRECTION('',(0.,0.,-1.));
#119=DIRECTION('',(-1.,0.,0.));
#120=AXIS2_PLACEMENT_3D('',#117,#118,#119);
#121=CIRCLE('',#120,20.5);
#122=EDGE_CURVE('',#114,#116,#121,.T.);
#123=ORIENTED_EDGE('',*,*,#122,.T.);
#124=CARTESIAN_POINT('',(0.,0.,-74.));
#125=DIRECTION('',(0.,0.,-1.));
#126=DIRECTION('',(-1.,0.,0.));
#127=AXIS2_PLACEMENT_3D('',#124,#125,#126);
#128=CIRCLE('',#127,20.5);
#129=EDGE_CURVE('',#116,#114,#128,.T.);
#130=ORIENTED_EDGE('',*,*,#129,.T.);
#131=EDGE_LOOP('',(#123,#130));
#132=FACE_BOUND('',#131,.T.);
#133=ORIENTED_EDGE('',*,*,#66,.F.);
#134=ORIENTED_EDGE('',*,*,#73,.F.);
#135=EDGE_LOOP('',(#133,#134));
#136=FACE_BOUND('',#135,.T.);
#137=ADVANCED_FACE('',(#132,#136),#112,.F.);
#138=CARTESIAN_POINT('',(0.,0.,-87.));
#139=DIRECTION('',(0.,0.,1.));
#140=DIRECTION('',(1.,0.,-0.));
#141=AXIS2_PLACEMENT_3D('',#138,#139,#140);
#142=CYLINDRICAL_SURFACE('',#141,20.5);
#143=CARTESIAN_POINT('',(20.5,0.,-74.));
#144=DIRECTION('',(-0.,-0.,-1.));
#145=VECTOR('',#144,1.);
#146=LINE('',#143,#145);
#147=EDGE_CURVE('',#116,#86,#146,.T.);
#148=ORIENTED_EDGE('',*,*,#147,.F.);
#149=ORIENTED_EDGE('',*,*,#122,.F.);
#150=ORIENTED_EDGE('',*,*,#129,.F.);
#151=ORIENTED_EDGE('',*,*,#147,.T.);
#152=ORIENTED_EDGE('',*,*,#92,.F.);
#153=ORIENTED_EDGE('',*,*,#99,.F.);
#154=EDGE_LOOP('',(#148,#149,#150,#151,#152,#153));
#155=FACE_BOUND('',#154,.T.);
#156=ADVANCED_FACE('',(#155),#142,.F.);
#157=CLOSED_SHELL('',(#77,#107,#137,#156));
#158=MANIFOLD_SOLID_BREP('rondelle',#157);
#159=COLOUR_RGB('',0.70588237,0.721568644,0.729411781);
#160=FILL_AREA_STYLE_COLOUR('',#159);
#161=FILL_AREA_STYLE('',(#160));
#162=SURFACE_STYLE_FILL_AREA(#161);
#163=SURFACE_SIDE_STYLE('',(#162));
#164=SURFACE_STYLE_USAGE(.BOTH.,#163);
#165=PRESENTATION_STYLE_ASSIGNMENT((#164));
#26=STYLED_ITEM('',(#165),#158);
#16=SHAPE_REPRESENTATION('root',(#15),#10);
#17=ADVANCED_BREP_SHAPE_REPRESENTATION('root',(#158),#10);
#173=SHAPE_REPRESENTATION_RELATIONSHIP('','',#16,#17);
#174=APPLICATION_CONTEXT('data for automotive mechanical design processes');
#175=APPLICATION_PROTOCOL_DEFINITION('international standard','automotive_design',1994,#174);
#176=PRODUCT_CONTEXT('',#174,'mechanical');
#177=PRODUCT_DEFINITION_CONTEXT('part definition',#174,'design');
#24=PRODUCT('root','root','',(#176));
#178=PRODUCT_RELATED_PRODUCT_CATEGORY('part','',(#24));
#179=PRODUCT_DEFINITION_FORMATION_WITH_SPECIFIED_SOURCE('','',#24,.NOT_KNOWN.);
#25=PRODUCT_DEFINITION('design','',#179,#177);
#23=PRODUCT_DEFINITION_SHAPE('','',#25);
#180=SHAPE_DEFINITION_REPRESENTATION(#23,#16);
#11=DRAUGHTING_MODEL('',(),#10);
#1=MECHANICAL_DESIGN_GEOMETRIC_PRESENTATION_REPRESENTATION('',(#26),#10);
ENDSEC;
END-ISO-10303-21;
