ISO-10303-21;
HEADER;
FILE_DESCRIPTION (( 'STEP AP203' ),
    '1' );
FILE_NAME ('Bague rotule 5mm m12.STEP',
    '2023-02-14T17:34:19',
    ( '' ),
    ( '' ),
    'SwSTEP 2.0',
    'SolidWorks 2021',
    '' );
FILE_SCHEMA (( 'CONFIG_CONTROL_DESIGN' ));
ENDSEC;

DATA;
#1 = ORIENTED_EDGE ( 'NONE', *, *, #150, .F. ) ;
#2 = DIRECTION ( 'NONE',  ( -0.000000000000000000, -0.000000000000000000, 1.000000000000000000 ) ) ;
#3 = DIRECTION ( 'NONE',  ( 0.000000000000000000, 0.000000000000000000, 1.000000000000000000 ) ) ;
#4 = CYLINDRICAL_SURFACE ( 'NONE', #124, 10.00000000000000000 ) ;
#5 = CARTESIAN_POINT ( 'NONE',  ( 0.000000000000000000, 0.000000000000000000, 5.000000000000000000 ) ) ;
#6 = AXIS2_PLACEMENT_3D ( 'NONE', #86, #81, #281 ) ;
#7 = DIRECTION ( 'NONE',  ( -0.000000000000000000, -0.000000000000000000, -1.000000000000000000 ) ) ;
#8 = DIRECTION ( 'NONE',  ( 1.000000000000000000, 0.000000000000000000, 0.000000000000000000 ) ) ;
#9 = PERSON_AND_ORGANIZATION ( #158, #209 ) ;
#10 = APPLICATION_PROTOCOL_DEFINITION ( 'international standard', 'config_control_design', 1994, #170 ) ;
#11 = ADVANCED_FACE ( 'NONE', ( #102 ), #74, .F. ) ;
#12 = PRODUCT_DEFINITION_SHAPE ( 'NONE', 'NONE',  #188 ) ;
#13 = PERSON_AND_ORGANIZATION ( #158, #209 ) ;
#14 = LOCAL_TIME ( 18, 34, 19.00000000000000000, #171 ) ;
#15 = VERTEX_POINT ( 'NONE', #123 ) ;
#16 = DATE_AND_TIME ( #298, #250 ) ;
#17 = EDGE_LOOP ( 'NONE', ( #30, #181, #230, #205 ) ) ;
#18 = EDGE_LOOP ( 'NONE', ( #31, #203, #117, #51 ) ) ;
#19 = ORIENTED_EDGE ( 'NONE', *, *, #162, .T. ) ;
#20 = CARTESIAN_POINT ( 'NONE',  ( -10.00000000000000000, 1.224646799147353256E-15, 3.000000000000000888 ) ) ;
#21 = CARTESIAN_POINT ( 'NONE',  ( -10.00000000000000000, 0.000000000000000000, 5.000000000000000000 ) ) ;
#22 = EDGE_CURVE ( 'NONE', #152, #15, #229, .T. ) ;
#23 = DIRECTION ( 'NONE',  ( 1.000000000000000000, 0.000000000000000000, 0.000000000000000000 ) ) ;
#24 = LINE ( 'NONE', #184, #53 ) ;
#25 = DIRECTION ( 'NONE',  ( 1.000000000000000000, 0.000000000000000000, 0.000000000000000000 ) ) ;
#26 = FACE_OUTER_BOUND ( 'NONE', #98, .T. ) ;
#27 = VECTOR ( 'NONE', #259, 1000.000000000000000 ) ;
#28 = CARTESIAN_POINT ( 'NONE',  ( -10.00000000000000000, 0.000000000000000000, 3.000000000000000888 ) ) ;
#29 = CALENDAR_DATE ( 2023, 14, 2 ) ;
#30 = ORIENTED_EDGE ( 'NONE', *, *, #65, .F. ) ;
#31 = ORIENTED_EDGE ( 'NONE', *, *, #162, .F. ) ;
#32 = DATE_AND_TIME ( #29, #187 ) ;
#33 = DIRECTION ( 'NONE',  ( -1.000000000000000000, 0.000000000000000000, 0.000000000000000000 ) ) ;
#34 = VERTEX_POINT ( 'NONE', #37 ) ;
#35 = CIRCLE ( 'NONE', #214, 6.099999999999999645 ) ;
#36 = CARTESIAN_POINT ( 'NONE',  ( 6.099999999999999645, 7.470345474798854293E-16, 10.00000000000000000 ) ) ;
#37 = CARTESIAN_POINT ( 'NONE',  ( -6.099999999999999645, 0.000000000000000000, 5.000000000000000000 ) ) ;
#38 = VECTOR ( 'NONE', #222, 1000.000000000000114 ) ;
#39 = DIRECTION ( 'NONE',  ( -0.000000000000000000, -0.000000000000000000, -1.000000000000000000 ) ) ;
#40 = EDGE_CURVE ( 'NONE', #148, #73, #233, .T. ) ;
#41 = FACE_OUTER_BOUND ( 'NONE', #18, .T. ) ;
#42 = CARTESIAN_POINT ( 'NONE',  ( 10.00000000000000000, 0.000000000000000000, 3.000000000000000888 ) ) ;
#43 = DIRECTION ( 'NONE',  ( 1.000000000000000000, 0.000000000000000000, -0.000000000000000000 ) ) ;
#44 = ORIENTED_EDGE ( 'NONE', *, *, #265, .T. ) ;
#45 = CC_DESIGN_PERSON_AND_ORGANIZATION_ASSIGNMENT ( #292, #296, ( #67 ) ) ;
#46 = CIRCLE ( 'NONE', #256, 6.099999999999999645 ) ;
#47 = CARTESIAN_POINT ( 'NONE',  ( 0.000000000000000000, 0.000000000000000000, 5.000000000000000000 ) ) ;
#48 = CC_DESIGN_PERSON_AND_ORGANIZATION_ASSIGNMENT ( #224, #143, ( #188 ) ) ;
#49 = PERSON_AND_ORGANIZATION_ROLE ( 'design_supplier' ) ;
#50 = CC_DESIGN_DATE_AND_TIME_ASSIGNMENT ( #16, #274, ( #67 ) ) ;
#51 = ORIENTED_EDGE ( 'NONE', *, *, #75, .F. ) ;
#52 = CALENDAR_DATE ( 2023, 14, 2 ) ;
#53 = VECTOR ( 'NONE', #63, 1000.000000000000000 ) ;
#54 = EDGE_LOOP ( 'NONE', ( #1, #275 ) ) ;
#55 = COORDINATED_UNIVERSAL_TIME_OFFSET ( 1, 0, .AHEAD. ) ;
#56 = VERTEX_POINT ( 'NONE', #266 ) ;
#57 = EDGE_CURVE ( 'NONE', #34, #73, #185, .T. ) ;
#58 = ORIENTED_EDGE ( 'NONE', *, *, #75, .T. ) ;
#59 = CC_DESIGN_PERSON_AND_ORGANIZATION_ASSIGNMENT ( #125, #226, ( #139 ) ) ;
#60 = DIRECTION ( 'NONE',  ( 1.000000000000000000, 0.000000000000000000, 0.000000000000000000 ) ) ;
#61 = CARTESIAN_POINT ( 'NONE',  ( 0.000000000000000000, 0.000000000000000000, 0.000000000000000000 ) ) ;
#62 = CARTESIAN_POINT ( 'NONE',  ( -6.999999999999992006, 1.040949779275249943E-15, 0.000000000000000000 ) ) ;
#63 = DIRECTION ( 'NONE',  ( -0.000000000000000000, -0.000000000000000000, -1.000000000000000000 ) ) ;
#64 = LINE ( 'NONE', #21, #27 ) ;
#65 = EDGE_CURVE ( 'NONE', #252, #56, #196, .T. ) ;
#66 = CARTESIAN_POINT ( 'NONE',  ( 0.000000000000000000, 0.000000000000000000, 5.000000000000000000 ) ) ;
#67 = SECURITY_CLASSIFICATION ( '', '', #175 ) ;
#68 = ADVANCED_FACE ( 'NONE', ( #41 ), #282, .T. ) ;
#69 = COORDINATED_UNIVERSAL_TIME_OFFSET ( 1, 0, .AHEAD. ) ;
#70 = PRODUCT ( 'Bague rotule 5mm m12', 'Bague rotule 5mm m12', '', ( #245 ) ) ;
#71 = ORIENTED_EDGE ( 'NONE', *, *, #193, .F. ) ;
#72 = APPROVAL_DATE_TIME ( #32, #135 ) ;
#73 = VERTEX_POINT ( 'NONE', #213 ) ;
#74 = CYLINDRICAL_SURFACE ( 'NONE', #219, 6.099999999999999645 ) ;
#75 = EDGE_CURVE ( 'NONE', #293, #97, #262, .T. ) ;
#76 = ORIENTED_EDGE ( 'NONE', *, *, #65, .T. ) ;
#77 = ORIENTED_EDGE ( 'NONE', *, *, #150, .T. ) ;
#78 = EDGE_CURVE ( 'NONE', #56, #293, #64, .T. ) ;
#79 = FACE_OUTER_BOUND ( 'NONE', #17, .T. ) ;
#80 = CC_DESIGN_APPROVAL ( #135, ( #139 ) ) ;
#81 = DIRECTION ( 'NONE',  ( -0.000000000000000000, -0.000000000000000000, 1.000000000000000000 ) ) ;
#82 = DIRECTION ( 'NONE',  ( -0.000000000000000000, -0.000000000000000000, 1.000000000000000000 ) ) ;
#83 = CARTESIAN_POINT ( 'NONE',  ( 10.00000000000000000, 1.224646799147353256E-15, 3.000000000000000888 ) ) ;
#84 = ADVANCED_FACE ( 'NONE', ( #79 ), #129, .T. ) ;
#85 = AXIS2_PLACEMENT_3D ( 'NONE', #5, #183, #105 ) ;
#86 = CARTESIAN_POINT ( 'NONE',  ( 0.000000000000000000, 0.000000000000000000, 3.000000000000000888 ) ) ;
#87 = CARTESIAN_POINT ( 'NONE',  ( 0.000000000000000000, 0.000000000000000000, 0.000000000000000000 ) ) ;
#88 = CARTESIAN_POINT ( 'NONE',  ( 0.000000000000000000, 0.000000000000000000, 0.000000000000000000 ) ) ;
#89 = AXIS2_PLACEMENT_3D ( 'NONE', #61, #161, #157 ) ;
#90 = APPROVAL ( #173, 'UNSPECIFIED' ) ;
#91 = DIRECTION ( 'NONE',  ( 0.000000000000000000, 0.000000000000000000, 1.000000000000000000 ) ) ;
#92 = DIRECTION ( 'NONE',  ( -0.000000000000000000, -0.000000000000000000, -1.000000000000000000 ) ) ;
#93 = ADVANCED_FACE ( 'NONE', ( #215 ), #4, .T. ) ;
#94 = PERSON_AND_ORGANIZATION ( #158, #209 ) ;
#95 = ORIENTED_EDGE ( 'NONE', *, *, #265, .F. ) ;
#96 = APPROVAL_DATE_TIME ( #223, #126 ) ;
#97 = VERTEX_POINT ( 'NONE', #83 ) ;
#98 = EDGE_LOOP ( 'NONE', ( #120, #19, #174, #71 ) ) ;
#99 = ADVANCED_BREP_SHAPE_REPRESENTATION ( 'Bague rotule 5mm m12', ( #211, #291 ), #283 ) ;
#100 = AXIS2_PLACEMENT_3D ( 'NONE', #66, #288, #189 ) ;
#101 = EDGE_LOOP ( 'NONE', ( #248, #180 ) ) ;
#102 = FACE_OUTER_BOUND ( 'NONE', #121, .T. ) ;
#103 = EDGE_CURVE ( 'NONE', #97, #293, #271, .T. ) ;
#104 = DIRECTION ( 'NONE',  ( -1.000000000000000000, 0.000000000000000000, 0.000000000000000000 ) ) ;
#105 = DIRECTION ( 'NONE',  ( -1.000000000000000000, 0.000000000000000000, 0.000000000000000000 ) ) ;
#106 = CC_DESIGN_APPROVAL ( #90, ( #67 ) ) ;
#107 = DIRECTION ( 'NONE',  ( -0.000000000000000000, -0.000000000000000000, -1.000000000000000000 ) ) ;
#108 = DIRECTION ( 'NONE',  ( -0.000000000000000000, -0.000000000000000000, -1.000000000000000000 ) ) ;
#109 = CARTESIAN_POINT ( 'NONE',  ( 0.000000000000000000, 0.000000000000000000, 0.000000000000000000 ) ) ;
#110 = CIRCLE ( 'NONE', #234, 6.099999999999999645 ) ;
#111 = DIRECTION ( 'NONE',  ( 1.000000000000000000, 0.000000000000000000, 0.000000000000000000 ) ) ;
#112 = CARTESIAN_POINT ( 'NONE',  ( 10.00000000000000000, 1.224646799147353256E-15, 5.000000000000000000 ) ) ;
#113 = CARTESIAN_POINT ( 'NONE',  ( 0.000000000000000000, 0.000000000000000000, 3.000000000000000888 ) ) ;
#114 = APPROVAL_PERSON_ORGANIZATION ( #13, #90, #253 ) ;
#115 = FACE_BOUND ( 'NONE', #101, .T. ) ;
#116 = EDGE_CURVE ( 'NONE', #144, #148, #154, .T. ) ;
#117 = ORIENTED_EDGE ( 'NONE', *, *, #193, .T. ) ;
#118 = VECTOR ( 'NONE', #133, 1000.000000000000114 ) ;
#119 = COORDINATED_UNIVERSAL_TIME_OFFSET ( 1, 0, .AHEAD. ) ;
#120 = ORIENTED_EDGE ( 'NONE', *, *, #22, .F. ) ;
#121 = EDGE_LOOP ( 'NONE', ( #201, #225, #255, #77 ) ) ;
#122 = CALENDAR_DATE ( 2023, 14, 2 ) ;
#123 = CARTESIAN_POINT ( 'NONE',  ( 6.999999999999992006, 0.000000000000000000, 0.000000000000000000 ) ) ;
#124 = AXIS2_PLACEMENT_3D ( 'NONE', #232, #7, #104 ) ;
#125 = PERSON_AND_ORGANIZATION ( #158, #209 ) ;
#126 = APPROVAL ( #138, 'UNSPECIFIED' ) ;
#127 = EDGE_LOOP ( 'NONE', ( #246, #227, #149, #273 ) ) ;
#128 = CARTESIAN_POINT ( 'NONE',  ( 0.000000000000000000, 0.000000000000000000, 3.000000000000000888 ) ) ;
#129 = CYLINDRICAL_SURFACE ( 'NONE', #85, 10.00000000000000000 ) ;
#130 = AXIS2_PLACEMENT_3D ( 'NONE', #212, #3, #279 ) ;
#131 = DIRECTION ( 'NONE',  ( -1.000000000000000000, 0.000000000000000000, 0.000000000000000000 ) ) ;
#132 = CC_DESIGN_APPROVAL ( #126, ( #188 ) ) ;
#133 = DIRECTION ( 'NONE',  ( -0.7071067811865483499, 8.659560562354942719E-17, 0.7071067811865466846 ) ) ;
#134 = DIRECTION ( 'NONE',  ( 0.000000000000000000, 0.000000000000000000, 1.000000000000000000 ) ) ;
#135 = APPROVAL ( #202, 'UNSPECIFIED' ) ;
#136 = LOCAL_TIME ( 18, 34, 19.00000000000000000, #119 ) ;
#137 = CARTESIAN_POINT ( 'NONE',  ( 0.000000000000000000, 0.000000000000000000, 0.000000000000000000 ) ) ;
#138 = APPROVAL_STATUS ( 'not_yet_approved' ) ;
#139 = PRODUCT_DEFINITION_FORMATION_WITH_SPECIFIED_SOURCE ( 'ANY', '', #70, .NOT_KNOWN. ) ;
#140 = EDGE_CURVE ( 'NONE', #144, #34, #35, .T. ) ;
#141 = DIRECTION ( 'NONE',  ( 0.000000000000000000, 0.000000000000000000, 1.000000000000000000 ) ) ;
#142 = ORIENTED_EDGE ( 'NONE', *, *, #78, .T. ) ;
#143 = PERSON_AND_ORGANIZATION_ROLE ( 'creator' ) ;
#144 = VERTEX_POINT ( 'NONE', #237 ) ;
#145 = EDGE_CURVE ( 'NONE', #252, #97, #24, .T. ) ;
#146 = APPLICATION_CONTEXT ( 'configuration controlled 3d designs of mechanical parts and assemblies' ) ;
#147 = CALENDAR_DATE ( 2023, 14, 2 ) ;
#148 = VERTEX_POINT ( 'NONE', #236 ) ;
#149 = ORIENTED_EDGE ( 'NONE', *, *, #40, .T. ) ;
#150 = EDGE_CURVE ( 'NONE', #73, #148, #110, .T. ) ;
#151 = DATE_AND_TIME ( #52, #204 ) ;
#152 = VERTEX_POINT ( 'NONE', #62 ) ;
#153 = CLOSED_SHELL ( 'NONE', ( #206, #166, #84, #93, #172, #299, #11, #68 ) ) ;
#154 = LINE ( 'NONE', #36, #168 ) ;
#155 = DIRECTION ( 'NONE',  ( 1.000000000000000000, 0.000000000000000000, 0.000000000000000000 ) ) ;
#156 = UNCERTAINTY_MEASURE_WITH_UNIT (LENGTH_MEASURE( 1.000000000000000082E-05 ), #267, 'distance_accuracy_value', 'NONE');
#157 = DIRECTION ( 'NONE',  ( -1.000000000000000000, 0.000000000000000000, 0.000000000000000000 ) ) ;
#158 = PERSON ( 'UNSPECIFIED', 'UNSPECIFIED', 'UNSPECIFIED', ('UNSPECIFIED'), ('UNSPECIFIED'), ('UNSPECIFIED') ) ;
#159 = AXIS2_PLACEMENT_3D ( 'NONE', #128, #82, #186 ) ;
#160 = CYLINDRICAL_SURFACE ( 'NONE', #220, 6.099999999999999645 ) ;
#161 = DIRECTION ( 'NONE',  ( 0.000000000000000000, 0.000000000000000000, -1.000000000000000000 ) ) ;
#162 = EDGE_CURVE ( 'NONE', #152, #293, #235, .T. ) ;
#163 = CIRCLE ( 'NONE', #100, 10.00000000000000000 ) ;
#164 = CARTESIAN_POINT ( 'NONE',  ( 0.000000000000000000, 0.000000000000000000, 5.000000000000000000 ) ) ;
#165 = PERSON_AND_ORGANIZATION ( #158, #209 ) ;
#166 = ADVANCED_FACE ( 'NONE', ( #258 ), #160, .F. ) ;
#167 = FACE_OUTER_BOUND ( 'NONE', #179, .T. ) ;
#168 = VECTOR ( 'NONE', #261, 1000.000000000000000 ) ;
#169 = CIRCLE ( 'NONE', #243, 6.999999999999992006 ) ;
#170 = APPLICATION_CONTEXT ( 'configuration controlled 3d designs of mechanical parts and assemblies' ) ;
#171 = COORDINATED_UNIVERSAL_TIME_OFFSET ( 1, 0, .AHEAD. ) ;
#172 = ADVANCED_FACE ( 'NONE', ( #115, #194 ), #221, .T. ) ;
#173 = APPROVAL_STATUS ( 'not_yet_approved' ) ;
#174 = ORIENTED_EDGE ( 'NONE', *, *, #103, .F. ) ;
#175 = SECURITY_CLASSIFICATION_LEVEL ( 'unclassified' ) ;
#176 = ORIENTED_EDGE ( 'NONE', *, *, #145, .F. ) ;
#177 = AXIS2_PLACEMENT_3D ( 'NONE', #284, #2, #155 ) ;
#178 = APPROVAL_PERSON_ORGANIZATION ( #165, #126, #242 ) ;
#179 = EDGE_LOOP ( 'NONE', ( #297, #199 ) ) ;
#180 = ORIENTED_EDGE ( 'NONE', *, *, #140, .F. ) ;
#181 = ORIENTED_EDGE ( 'NONE', *, *, #145, .T. ) ;
#182 = CC_DESIGN_SECURITY_CLASSIFICATION ( #67, ( #139 ) ) ;
#183 = DIRECTION ( 'NONE',  ( -0.000000000000000000, -0.000000000000000000, -1.000000000000000000 ) ) ;
#184 = CARTESIAN_POINT ( 'NONE',  ( 10.00000000000000000, 1.224646799147353256E-15, 5.000000000000000000 ) ) ;
#185 = LINE ( 'NONE', #208, #276 ) ;
#186 = DIRECTION ( 'NONE',  ( 1.000000000000000000, 0.000000000000000000, 0.000000000000000000 ) ) ;
#187 = LOCAL_TIME ( 18, 34, 19.00000000000000000, #200 ) ;
#188 = PRODUCT_DEFINITION ( 'UNKNOWN', '', #139, #216 ) ;
#189 = DIRECTION ( 'NONE',  ( 1.000000000000000000, 0.000000000000000000, 0.000000000000000000 ) ) ;
#190 = DIRECTION ( 'NONE',  ( 1.000000000000000000, 0.000000000000000000, 0.000000000000000000 ) ) ;
#191 = DIRECTION ( 'NONE',  ( -0.000000000000000000, -0.000000000000000000, 1.000000000000000000 ) ) ;
#192 = APPLICATION_PROTOCOL_DEFINITION ( 'international standard', 'config_control_design', 1994, #146 ) ;
#193 = EDGE_CURVE ( 'NONE', #15, #97, #239, .T. ) ;
#194 = FACE_OUTER_BOUND ( 'NONE', #295, .T. ) ;
#195 = CC_DESIGN_PERSON_AND_ORGANIZATION_ASSIGNMENT ( #198, #49, ( #139 ) ) ;
#196 = CIRCLE ( 'NONE', #130, 10.00000000000000000 ) ;
#197 = EDGE_CURVE ( 'NONE', #34, #144, #46, .T. ) ;
#198 = PERSON_AND_ORGANIZATION ( #158, #209 ) ;
#199 = ORIENTED_EDGE ( 'NONE', *, *, #22, .T. ) ;
#200 = COORDINATED_UNIVERSAL_TIME_OFFSET ( 1, 0, .AHEAD. ) ;
#201 = ORIENTED_EDGE ( 'NONE', *, *, #116, .F. ) ;
#202 = APPROVAL_STATUS ( 'not_yet_approved' ) ;
#203 = ORIENTED_EDGE ( 'NONE', *, *, #240, .F. ) ;
#204 = LOCAL_TIME ( 18, 34, 19.00000000000000000, #55 ) ;
#205 = ORIENTED_EDGE ( 'NONE', *, *, #78, .F. ) ;
#206 = ADVANCED_FACE ( 'NONE', ( #26 ), #263, .T. ) ;
#207 = CARTESIAN_POINT ( 'NONE',  ( 0.000000000000000000, 0.000000000000000000, 10.00000000000000000 ) ) ;
#208 = CARTESIAN_POINT ( 'NONE',  ( -6.099999999999999645, 0.000000000000000000, 10.00000000000000000 ) ) ;
#209 = ORGANIZATION ( 'UNSPECIFIED', 'UNSPECIFIED', '' ) ;
#210 = CARTESIAN_POINT ( 'NONE',  ( 0.000000000000000000, 0.000000000000000000, 5.000000000000000000 ) ) ;
#211 = MANIFOLD_SOLID_BREP ( 'Chanfrein1', #153 ) ;
#212 = CARTESIAN_POINT ( 'NONE',  ( 0.000000000000000000, 0.000000000000000000, 5.000000000000000000 ) ) ;
#213 = CARTESIAN_POINT ( 'NONE',  ( -6.099999999999999645, 0.000000000000000000, 0.000000000000000000 ) ) ;
#214 = AXIS2_PLACEMENT_3D ( 'NONE', #210, #134, #23 ) ;
#215 = FACE_OUTER_BOUND ( 'NONE', #278, .T. ) ;
#216 = DESIGN_CONTEXT ( 'detailed design', #146, 'design' ) ;
#217 = AXIS2_PLACEMENT_3D ( 'NONE', #47, #141, #43 ) ;
#218 = DIRECTION ( 'NONE',  ( -1.000000000000000000, 0.000000000000000000, 0.000000000000000000 ) ) ;
#219 = AXIS2_PLACEMENT_3D ( 'NONE', #207, #254, #33 ) ;
#220 = AXIS2_PLACEMENT_3D ( 'NONE', #264, #39, #218 ) ;
#221 = PLANE ( 'NONE',  #217 ) ;
#222 = DIRECTION ( 'NONE',  ( 0.7071067811865483499, 0.000000000000000000, 0.7071067811865466846 ) ) ;
#223 = DATE_AND_TIME ( #147, #136 ) ;
#224 = PERSON_AND_ORGANIZATION ( #158, #209 ) ;
#225 = ORIENTED_EDGE ( 'NONE', *, *, #140, .T. ) ;
#226 = PERSON_AND_ORGANIZATION_ROLE ( 'creator' ) ;
#227 = ORIENTED_EDGE ( 'NONE', *, *, #116, .T. ) ;
#228 = APPROVAL_DATE_TIME ( #151, #90 ) ;
#229 = CIRCLE ( 'NONE', #249, 6.999999999999992006 ) ;
#230 = ORIENTED_EDGE ( 'NONE', *, *, #103, .T. ) ;
#231 = CARTESIAN_POINT ( 'NONE',  ( 0.000000000000000000, 0.000000000000000000, 0.000000000000000000 ) ) ;
#232 = CARTESIAN_POINT ( 'NONE',  ( 0.000000000000000000, 0.000000000000000000, 5.000000000000000000 ) ) ;
#233 = CIRCLE ( 'NONE', #89, 6.099999999999999645 ) ;
#234 = AXIS2_PLACEMENT_3D ( 'NONE', #109, #280, #131 ) ;
#235 = LINE ( 'NONE', #20, #118 ) ;
#236 = CARTESIAN_POINT ( 'NONE',  ( 6.099999999999999645, 7.470345474798854293E-16, 0.000000000000000000 ) ) ;
#237 = CARTESIAN_POINT ( 'NONE',  ( 6.099999999999999645, 7.470345474798854293E-16, 5.000000000000000000 ) ) ;
#238 = DIRECTION ( 'NONE',  ( 0.000000000000000000, 0.000000000000000000, 1.000000000000000000 ) ) ;
#239 = LINE ( 'NONE', #42, #38 ) ;
#240 = EDGE_CURVE ( 'NONE', #15, #152, #169, .T. ) ;
#241 = PERSON_AND_ORGANIZATION_ROLE ( 'design_owner' ) ;
#242 = APPROVAL_ROLE ( '' ) ;
#243 = AXIS2_PLACEMENT_3D ( 'NONE', #137, #92, #8 ) ;
#244 = CC_DESIGN_PERSON_AND_ORGANIZATION_ASSIGNMENT ( #9, #241, ( #70 ) ) ;
#245 = MECHANICAL_CONTEXT ( 'NONE', #170, 'mechanical' ) ;
#246 = ORIENTED_EDGE ( 'NONE', *, *, #197, .T. ) ;
#247 = DATE_TIME_ROLE ( 'creation_date' ) ;
#248 = ORIENTED_EDGE ( 'NONE', *, *, #197, .F. ) ;
#249 = AXIS2_PLACEMENT_3D ( 'NONE', #231, #107, #60 ) ;
#250 = LOCAL_TIME ( 18, 34, 19.00000000000000000, #69 ) ;
#251 = APPROVAL_ROLE ( '' ) ;
#252 = VERTEX_POINT ( 'NONE', #112 ) ;
#253 = APPROVAL_ROLE ( '' ) ;
#254 = DIRECTION ( 'NONE',  ( -0.000000000000000000, -0.000000000000000000, -1.000000000000000000 ) ) ;
#255 = ORIENTED_EDGE ( 'NONE', *, *, #57, .T. ) ;
#256 = AXIS2_PLACEMENT_3D ( 'NONE', #164, #269, #190 ) ;
#257 = CC_DESIGN_DATE_AND_TIME_ASSIGNMENT ( #294, #247, ( #188 ) ) ;
#258 = FACE_OUTER_BOUND ( 'NONE', #127, .T. ) ;
#259 = DIRECTION ( 'NONE',  ( -0.000000000000000000, -0.000000000000000000, -1.000000000000000000 ) ) ;
#260 = PRODUCT_RELATED_PRODUCT_CATEGORY ( 'detail', '', ( #70 ) ) ;
#261 = DIRECTION ( 'NONE',  ( -0.000000000000000000, -0.000000000000000000, -1.000000000000000000 ) ) ;
#262 = CIRCLE ( 'NONE', #159, 10.00000000000000000 ) ;
#263 = CONICAL_SURFACE ( 'NONE', #277, 10.00000000000000000, 0.7853981633974495002 ) ;
#264 = CARTESIAN_POINT ( 'NONE',  ( 0.000000000000000000, 0.000000000000000000, 10.00000000000000000 ) ) ;
#265 = EDGE_CURVE ( 'NONE', #56, #252, #163, .T. ) ;
#266 = CARTESIAN_POINT ( 'NONE',  ( -10.00000000000000000, 0.000000000000000000, 5.000000000000000000 ) ) ;
#267 =( LENGTH_UNIT ( ) NAMED_UNIT ( * ) SI_UNIT ( .MILLI., .METRE. ) );
#268 = AXIS2_PLACEMENT_3D ( 'NONE', #87, #238, #270 ) ;
#269 = DIRECTION ( 'NONE',  ( 0.000000000000000000, 0.000000000000000000, 1.000000000000000000 ) ) ;
#270 = DIRECTION ( 'NONE',  ( 1.000000000000000000, 0.000000000000000000, -0.000000000000000000 ) ) ;
#271 = CIRCLE ( 'NONE', #6, 10.00000000000000000 ) ;
#272 = APPROVAL_PERSON_ORGANIZATION ( #94, #135, #251 ) ;
#273 = ORIENTED_EDGE ( 'NONE', *, *, #57, .F. ) ;
#274 = DATE_TIME_ROLE ( 'classification_date' ) ;
#275 = ORIENTED_EDGE ( 'NONE', *, *, #40, .F. ) ;
#276 = VECTOR ( 'NONE', #108, 1000.000000000000000 ) ;
#277 = AXIS2_PLACEMENT_3D ( 'NONE', #113, #191, #25 ) ;
#278 = EDGE_LOOP ( 'NONE', ( #176, #95, #142, #58 ) ) ;
#279 = DIRECTION ( 'NONE',  ( 1.000000000000000000, 0.000000000000000000, 0.000000000000000000 ) ) ;
#280 = DIRECTION ( 'NONE',  ( 0.000000000000000000, 0.000000000000000000, -1.000000000000000000 ) ) ;
#281 = DIRECTION ( 'NONE',  ( 1.000000000000000000, 0.000000000000000000, 0.000000000000000000 ) ) ;
#282 = CONICAL_SURFACE ( 'NONE', #177, 10.00000000000000000, 0.7853981633974495002 ) ;
#283 =( GEOMETRIC_REPRESENTATION_CONTEXT ( 3 ) GLOBAL_UNCERTAINTY_ASSIGNED_CONTEXT ( ( #156 ) ) GLOBAL_UNIT_ASSIGNED_CONTEXT ( ( #267, #285, #286 ) ) REPRESENTATION_CONTEXT ( 'NONE', 'WORKASPACE' ) );
#284 = CARTESIAN_POINT ( 'NONE',  ( 0.000000000000000000, 0.000000000000000000, 3.000000000000000888 ) ) ;
#285 =( NAMED_UNIT ( * ) PLANE_ANGLE_UNIT ( ) SI_UNIT ( $, .RADIAN. ) );
#286 =( NAMED_UNIT ( * ) SI_UNIT ( $, .STERADIAN. ) SOLID_ANGLE_UNIT ( ) );
#287 = PLANE ( 'NONE',  #268 ) ;
#288 = DIRECTION ( 'NONE',  ( 0.000000000000000000, 0.000000000000000000, 1.000000000000000000 ) ) ;
#289 = FACE_BOUND ( 'NONE', #54, .T. ) ;
#290 = SHAPE_DEFINITION_REPRESENTATION ( #12, #99 ) ;
#291 = AXIS2_PLACEMENT_3D ( 'NONE', #88, #91, #111 ) ;
#292 = PERSON_AND_ORGANIZATION ( #158, #209 ) ;
#293 = VERTEX_POINT ( 'NONE', #28 ) ;
#294 = DATE_AND_TIME ( #122, #14 ) ;
#295 = EDGE_LOOP ( 'NONE', ( #44, #76 ) ) ;
#296 = PERSON_AND_ORGANIZATION_ROLE ( 'classification_officer' ) ;
#297 = ORIENTED_EDGE ( 'NONE', *, *, #240, .T. ) ;
#298 = CALENDAR_DATE ( 2023, 14, 2 ) ;
#299 = ADVANCED_FACE ( 'NONE', ( #167, #289 ), #287, .F. ) ;
ENDSEC;
END-ISO-10303-21;
