ISO-10303-21;
HEADER;
FILE_DESCRIPTION (( 'STEP AP203' ),
    '1' );
FILE_NAME ('Bague rotule 5mm m10.STEP',
    '2023-02-14T17:33:52',
    ( '' ),
    ( '' ),
    'SwSTEP 2.0',
    'SolidWorks 2021',
    '' );
FILE_SCHEMA (( 'CONFIG_CONTROL_DESIGN' ));
ENDSEC;

DATA;
#1 = ORIENTED_EDGE ( 'NONE', *, *, #196, .F. ) ;
#2 = CIRCLE ( 'NONE', #99, 10.00000000000000000 ) ;
#3 = CARTESIAN_POINT ( 'NONE',  ( -5.099999999999999645, 0.000000000000000000, 10.00000000000000000 ) ) ;
#4 = EDGE_LOOP ( 'NONE', ( #50, #27 ) ) ;
#5 = CARTESIAN_POINT ( 'NONE',  ( 0.000000000000000000, 0.000000000000000000, 0.000000000000000000 ) ) ;
#6 = FACE_OUTER_BOUND ( 'NONE', #191, .T. ) ;
#7 = EDGE_CURVE ( 'NONE', #104, #248, #164, .T. ) ;
#8 = PERSON_AND_ORGANIZATION ( #53, #214 ) ;
#9 = DIRECTION ( 'NONE',  ( 1.000000000000000000, 0.000000000000000000, -0.000000000000000000 ) ) ;
#10 = APPROVAL_DATE_TIME ( #213, #290 ) ;
#11 = AXIS2_PLACEMENT_3D ( 'NONE', #91, #294, #41 ) ;
#12 = COORDINATED_UNIVERSAL_TIME_OFFSET ( 1, 0, .AHEAD. ) ;
#13 = EDGE_CURVE ( 'NONE', #270, #180, #83, .T. ) ;
#14 = CARTESIAN_POINT ( 'NONE',  ( 0.000000000000000000, 0.000000000000000000, 3.000000000000000888 ) ) ;
#15 = CLOSED_SHELL ( 'NONE', ( #265, #60, #158, #87, #66, #61, #171, #288 ) ) ;
#16 = ADVANCED_BREP_SHAPE_REPRESENTATION ( 'Bague rotule 5mm m10', ( #105, #127 ), #17 ) ;
#17 =( GEOMETRIC_REPRESENTATION_CONTEXT ( 3 ) GLOBAL_UNCERTAINTY_ASSIGNED_CONTEXT ( ( #285 ) ) GLOBAL_UNIT_ASSIGNED_CONTEXT ( ( #103, #100, #142 ) ) REPRESENTATION_CONTEXT ( 'NONE', 'WORKASPACE' ) );
#18 = EDGE_CURVE ( 'NONE', #129, #228, #222, .T. ) ;
#19 = PRODUCT_RELATED_PRODUCT_CATEGORY ( 'detail', '', ( #81 ) ) ;
#20 = VECTOR ( 'NONE', #273, 1000.000000000000000 ) ;
#21 = CARTESIAN_POINT ( 'NONE',  ( -10.00000000000000000, 0.000000000000000000, 3.000000000000000888 ) ) ;
#22 = CC_DESIGN_APPROVAL ( #290, ( #291 ) ) ;
#23 = DIRECTION ( 'NONE',  ( 0.000000000000000000, 0.000000000000000000, 1.000000000000000000 ) ) ;
#24 = ORIENTED_EDGE ( 'NONE', *, *, #153, .T. ) ;
#25 = LINE ( 'NONE', #49, #20 ) ;
#26 = CC_DESIGN_DATE_AND_TIME_ASSIGNMENT ( #119, #217, ( #125 ) ) ;
#27 = ORIENTED_EDGE ( 'NONE', *, *, #108, .F. ) ;
#28 = DIRECTION ( 'NONE',  ( -0.000000000000000000, -0.000000000000000000, -1.000000000000000000 ) ) ;
#29 = DIRECTION ( 'NONE',  ( -1.000000000000000000, 0.000000000000000000, 0.000000000000000000 ) ) ;
#30 = LINE ( 'NONE', #185, #193 ) ;
#31 = ORIENTED_EDGE ( 'NONE', *, *, #108, .T. ) ;
#32 = CALENDAR_DATE ( 2023, 14, 2 ) ;
#33 = DIRECTION ( 'NONE',  ( 0.000000000000000000, 0.000000000000000000, -1.000000000000000000 ) ) ;
#34 = DIRECTION ( 'NONE',  ( 1.000000000000000000, 0.000000000000000000, 0.000000000000000000 ) ) ;
#35 = LOCAL_TIME ( 18, 33, 52.00000000000000000, #215 ) ;
#36 = CALENDAR_DATE ( 2023, 14, 2 ) ;
#37 = CIRCLE ( 'NONE', #151, 5.099999999999999645 ) ;
#38 = CC_DESIGN_PERSON_AND_ORGANIZATION_ASSIGNMENT ( #286, #78, ( #81 ) ) ;
#39 = LINE ( 'NONE', #3, #58 ) ;
#40 = APPLICATION_CONTEXT ( 'configuration controlled 3d designs of mechanical parts and assemblies' ) ;
#41 = DIRECTION ( 'NONE',  ( 1.000000000000000000, 0.000000000000000000, 0.000000000000000000 ) ) ;
#42 = FACE_OUTER_BOUND ( 'NONE', #263, .T. ) ;
#43 = AXIS2_PLACEMENT_3D ( 'NONE', #64, #23, #131 ) ;
#44 = CC_DESIGN_DATE_AND_TIME_ASSIGNMENT ( #121, #149, ( #123 ) ) ;
#45 = DIRECTION ( 'NONE',  ( -1.000000000000000000, 0.000000000000000000, 0.000000000000000000 ) ) ;
#46 = ORIENTED_EDGE ( 'NONE', *, *, #178, .F. ) ;
#47 = CYLINDRICAL_SURFACE ( 'NONE', #85, 10.00000000000000000 ) ;
#48 = DIRECTION ( 'NONE',  ( -1.000000000000000000, 0.000000000000000000, 0.000000000000000000 ) ) ;
#49 = CARTESIAN_POINT ( 'NONE',  ( 10.00000000000000000, 1.224646799147353256E-15, 5.000000000000000000 ) ) ;
#50 = ORIENTED_EDGE ( 'NONE', *, *, #18, .F. ) ;
#51 = VECTOR ( 'NONE', #162, 1000.000000000000000 ) ;
#52 = PERSON_AND_ORGANIZATION ( #53, #214 ) ;
#53 = PERSON ( 'UNSPECIFIED', 'UNSPECIFIED', 'UNSPECIFIED', ('UNSPECIFIED'), ('UNSPECIFIED'), ('UNSPECIFIED') ) ;
#54 = DIRECTION ( 'NONE',  ( 0.000000000000000000, 0.000000000000000000, 1.000000000000000000 ) ) ;
#55 = APPROVAL_DATE_TIME ( #280, #258 ) ;
#56 = PERSON_AND_ORGANIZATION ( #53, #214 ) ;
#57 = DIRECTION ( 'NONE',  ( 1.000000000000000000, 0.000000000000000000, 0.000000000000000000 ) ) ;
#58 = VECTOR ( 'NONE', #208, 1000.000000000000000 ) ;
#59 = APPROVAL_STATUS ( 'not_yet_approved' ) ;
#60 = ADVANCED_FACE ( 'NONE', ( #95 ), #210, .F. ) ;
#61 = ADVANCED_FACE ( 'NONE', ( #6, #88 ), #65, .F. ) ;
#62 = APPROVAL ( #59, 'UNSPECIFIED' ) ;
#63 = DIRECTION ( 'NONE',  ( 1.000000000000000000, 0.000000000000000000, 0.000000000000000000 ) ) ;
#64 = CARTESIAN_POINT ( 'NONE',  ( 0.000000000000000000, 0.000000000000000000, 5.000000000000000000 ) ) ;
#65 = PLANE ( 'NONE',  #146 ) ;
#66 = ADVANCED_FACE ( 'NONE', ( #245, #42 ), #133, .T. ) ;
#67 = CARTESIAN_POINT ( 'NONE',  ( 0.000000000000000000, 0.000000000000000000, 0.000000000000000000 ) ) ;
#68 = DIRECTION ( 'NONE',  ( 0.000000000000000000, 0.000000000000000000, 1.000000000000000000 ) ) ;
#69 = CYLINDRICAL_SURFACE ( 'NONE', #246, 5.099999999999999645 ) ;
#70 = ORIENTED_EDGE ( 'NONE', *, *, #284, .F. ) ;
#71 = DIRECTION ( 'NONE',  ( -0.000000000000000000, -0.000000000000000000, -1.000000000000000000 ) ) ;
#72 = VERTEX_POINT ( 'NONE', #77 ) ;
#73 = AXIS2_PLACEMENT_3D ( 'NONE', #251, #33, #48 ) ;
#74 = DIRECTION ( 'NONE',  ( -0.000000000000000000, -0.000000000000000000, 1.000000000000000000 ) ) ;
#75 = ORIENTED_EDGE ( 'NONE', *, *, #216, .F. ) ;
#76 = CIRCLE ( 'NONE', #264, 6.999999999999992006 ) ;
#77 = CARTESIAN_POINT ( 'NONE',  ( 6.999999999999992006, 0.000000000000000000, 0.000000000000000000 ) ) ;
#78 = PERSON_AND_ORGANIZATION_ROLE ( 'design_owner' ) ;
#79 = CC_DESIGN_PERSON_AND_ORGANIZATION_ASSIGNMENT ( #236, #126, ( #125 ) ) ;
#80 = PERSON_AND_ORGANIZATION ( #53, #214 ) ;
#81 = PRODUCT ( 'Bague rotule 5mm m10', 'Bague rotule 5mm m10', '', ( #96 ) ) ;
#82 = APPROVAL_PERSON_ORGANIZATION ( #234, #258, #255 ) ;
#83 = CIRCLE ( 'NONE', #73, 5.099999999999999645 ) ;
#84 = CARTESIAN_POINT ( 'NONE',  ( 5.099999999999999645, 6.245698675651500839E-16, 5.000000000000000000 ) ) ;
#85 = AXIS2_PLACEMENT_3D ( 'NONE', #244, #276, #267 ) ;
#86 = DIRECTION ( 'NONE',  ( -0.000000000000000000, -0.000000000000000000, 1.000000000000000000 ) ) ;
#87 = ADVANCED_FACE ( 'NONE', ( #98 ), #195, .T. ) ;
#88 = FACE_BOUND ( 'NONE', #274, .T. ) ;
#89 = DIRECTION ( 'NONE',  ( -1.000000000000000000, 0.000000000000000000, 0.000000000000000000 ) ) ;
#90 = DIRECTION ( 'NONE',  ( 1.000000000000000000, 0.000000000000000000, -0.000000000000000000 ) ) ;
#91 = CARTESIAN_POINT ( 'NONE',  ( 0.000000000000000000, 0.000000000000000000, 5.000000000000000000 ) ) ;
#92 = ORIENTED_EDGE ( 'NONE', *, *, #153, .F. ) ;
#93 = AXIS2_PLACEMENT_3D ( 'NONE', #14, #74, #57 ) ;
#94 = FACE_OUTER_BOUND ( 'NONE', #120, .T. ) ;
#95 = FACE_OUTER_BOUND ( 'NONE', #296, .T. ) ;
#96 = MECHANICAL_CONTEXT ( 'NONE', #239, 'mechanical' ) ;
#97 = EDGE_LOOP ( 'NONE', ( #205, #70, #111, #221 ) ) ;
#98 = FACE_OUTER_BOUND ( 'NONE', #97, .T. ) ;
#99 = AXIS2_PLACEMENT_3D ( 'NONE', #250, #130, #117 ) ;
#100 =( NAMED_UNIT ( * ) PLANE_ANGLE_UNIT ( ) SI_UNIT ( $, .RADIAN. ) );
#101 = CC_DESIGN_PERSON_AND_ORGANIZATION_ASSIGNMENT ( #52, #102, ( #123 ) ) ;
#102 = PERSON_AND_ORGANIZATION_ROLE ( 'creator' ) ;
#103 =( LENGTH_UNIT ( ) NAMED_UNIT ( * ) SI_UNIT ( .MILLI., .METRE. ) );
#104 = VERTEX_POINT ( 'NONE', #206 ) ;
#105 = MANIFOLD_SOLID_BREP ( 'Chanfrein1', #15 ) ;
#106 = ORIENTED_EDGE ( 'NONE', *, *, #204, .T. ) ;
#107 = AXIS2_PLACEMENT_3D ( 'NONE', #283, #212, #45 ) ;
#108 = EDGE_CURVE ( 'NONE', #228, #129, #37, .T. ) ;
#109 = DIRECTION ( 'NONE',  ( -0.000000000000000000, -0.000000000000000000, -1.000000000000000000 ) ) ;
#110 = CIRCLE ( 'NONE', #176, 10.00000000000000000 ) ;
#111 = ORIENTED_EDGE ( 'NONE', *, *, #178, .T. ) ;
#112 = FACE_OUTER_BOUND ( 'NONE', #254, .T. ) ;
#113 = ORIENTED_EDGE ( 'NONE', *, *, #284, .T. ) ;
#114 = DIRECTION ( 'NONE',  ( 1.000000000000000000, 0.000000000000000000, 0.000000000000000000 ) ) ;
#115 = VERTEX_POINT ( 'NONE', #165 ) ;
#116 = EDGE_CURVE ( 'NONE', #72, #115, #30, .T. ) ;
#117 = DIRECTION ( 'NONE',  ( 1.000000000000000000, 0.000000000000000000, 0.000000000000000000 ) ) ;
#118 = DIRECTION ( 'NONE',  ( 0.000000000000000000, 0.000000000000000000, 1.000000000000000000 ) ) ;
#119 = DATE_AND_TIME ( #36, #35 ) ;
#120 = EDGE_LOOP ( 'NONE', ( #1, #166, #232, #46 ) ) ;
#121 = DATE_AND_TIME ( #32, #282 ) ;
#122 = DIRECTION ( 'NONE',  ( -0.000000000000000000, -0.000000000000000000, -1.000000000000000000 ) ) ;
#123 = PRODUCT_DEFINITION ( 'UNKNOWN', '', #291, #134 ) ;
#124 = CALENDAR_DATE ( 2023, 14, 2 ) ;
#125 = SECURITY_CLASSIFICATION ( '', '', #177 ) ;
#126 = PERSON_AND_ORGANIZATION_ROLE ( 'classification_officer' ) ;
#127 = AXIS2_PLACEMENT_3D ( 'NONE', #5, #259, #34 ) ;
#128 = CC_DESIGN_PERSON_AND_ORGANIZATION_ASSIGNMENT ( #56, #147, ( #291 ) ) ;
#129 = VERTEX_POINT ( 'NONE', #242 ) ;
#130 = DIRECTION ( 'NONE',  ( -0.000000000000000000, -0.000000000000000000, 1.000000000000000000 ) ) ;
#131 = DIRECTION ( 'NONE',  ( 1.000000000000000000, 0.000000000000000000, 0.000000000000000000 ) ) ;
#132 = CIRCLE ( 'NONE', #141, 6.999999999999992006 ) ;
#133 = PLANE ( 'NONE',  #292 ) ;
#134 = DESIGN_CONTEXT ( 'detailed design', #40, 'design' ) ;
#135 = LINE ( 'NONE', #227, #266 ) ;
#136 = ORIENTED_EDGE ( 'NONE', *, *, #249, .F. ) ;
#137 = FACE_OUTER_BOUND ( 'NONE', #189, .T. ) ;
#138 = ORIENTED_EDGE ( 'NONE', *, *, #224, .F. ) ;
#139 = DIRECTION ( 'NONE',  ( 0.000000000000000000, 0.000000000000000000, -1.000000000000000000 ) ) ;
#140 = ORIENTED_EDGE ( 'NONE', *, *, #13, .F. ) ;
#141 = AXIS2_PLACEMENT_3D ( 'NONE', #159, #109, #201 ) ;
#142 =( NAMED_UNIT ( * ) SI_UNIT ( $, .STERADIAN. ) SOLID_ANGLE_UNIT ( ) );
#143 = ORIENTED_EDGE ( 'NONE', *, *, #216, .T. ) ;
#144 = EDGE_CURVE ( 'NONE', #281, #115, #25, .T. ) ;
#145 = APPROVAL_STATUS ( 'not_yet_approved' ) ;
#146 = AXIS2_PLACEMENT_3D ( 'NONE', #161, #118, #90 ) ;
#147 = PERSON_AND_ORGANIZATION_ROLE ( 'design_supplier' ) ;
#148 = CIRCLE ( 'NONE', #43, 10.00000000000000000 ) ;
#149 = DATE_TIME_ROLE ( 'creation_date' ) ;
#150 = APPROVAL_ROLE ( '' ) ;
#151 = AXIS2_PLACEMENT_3D ( 'NONE', #199, #247, #114 ) ;
#152 = DATE_AND_TIME ( #154, #173 ) ;
#153 = EDGE_CURVE ( 'NONE', #129, #180, #39, .T. ) ;
#154 = CALENDAR_DATE ( 2023, 14, 2 ) ;
#155 = CC_DESIGN_APPROVAL ( #62, ( #125 ) ) ;
#156 = ORIENTED_EDGE ( 'NONE', *, *, #7, .F. ) ;
#157 = COORDINATED_UNIVERSAL_TIME_OFFSET ( 1, 0, .AHEAD. ) ;
#158 = ADVANCED_FACE ( 'NONE', ( #94 ), #47, .T. ) ;
#159 = CARTESIAN_POINT ( 'NONE',  ( 0.000000000000000000, 0.000000000000000000, 0.000000000000000000 ) ) ;
#160 = CARTESIAN_POINT ( 'NONE',  ( 10.00000000000000000, 1.224646799147353256E-15, 5.000000000000000000 ) ) ;
#161 = CARTESIAN_POINT ( 'NONE',  ( 0.000000000000000000, 0.000000000000000000, 0.000000000000000000 ) ) ;
#162 = DIRECTION ( 'NONE',  ( -0.000000000000000000, -0.000000000000000000, -1.000000000000000000 ) ) ;
#163 = APPROVAL_PERSON_ORGANIZATION ( #238, #290, #211 ) ;
#164 = LINE ( 'NONE', #170, #287 ) ;
#165 = CARTESIAN_POINT ( 'NONE',  ( 10.00000000000000000, 1.224646799147353256E-15, 3.000000000000000888 ) ) ;
#166 = ORIENTED_EDGE ( 'NONE', *, *, #144, .T. ) ;
#167 = DIRECTION ( 'NONE',  ( 0.7071067811865483499, 0.000000000000000000, 0.7071067811865466846 ) ) ;
#168 = ORIENTED_EDGE ( 'NONE', *, *, #235, .F. ) ;
#169 = APPLICATION_PROTOCOL_DEFINITION ( 'international standard', 'config_control_design', 1994, #239 ) ;
#170 = CARTESIAN_POINT ( 'NONE',  ( -10.00000000000000000, 1.224646799147353256E-15, 3.000000000000000888 ) ) ;
#171 = ADVANCED_FACE ( 'NONE', ( #137 ), #69, .F. ) ;
#172 = CIRCLE ( 'NONE', #179, 5.099999999999999645 ) ;
#173 = LOCAL_TIME ( 18, 33, 52.00000000000000000, #157 ) ;
#174 = APPLICATION_PROTOCOL_DEFINITION ( 'international standard', 'config_control_design', 1994, #40 ) ;
#175 = APPROVAL_STATUS ( 'not_yet_approved' ) ;
#176 = AXIS2_PLACEMENT_3D ( 'NONE', #188, #253, #63 ) ;
#177 = SECURITY_CLASSIFICATION_LEVEL ( 'unclassified' ) ;
#178 = EDGE_CURVE ( 'NONE', #202, #248, #135, .T. ) ;
#179 = AXIS2_PLACEMENT_3D ( 'NONE', #67, #139, #190 ) ;
#180 = VERTEX_POINT ( 'NONE', #299 ) ;
#181 = CONICAL_SURFACE ( 'NONE', #93, 10.00000000000000000, 0.7853981633974495002 ) ;
#182 = CARTESIAN_POINT ( 'NONE',  ( 0.000000000000000000, 0.000000000000000000, 0.000000000000000000 ) ) ;
#183 = DIRECTION ( 'NONE',  ( 1.000000000000000000, 0.000000000000000000, 0.000000000000000000 ) ) ;
#184 = CARTESIAN_POINT ( 'NONE',  ( 0.000000000000000000, 0.000000000000000000, 10.00000000000000000 ) ) ;
#185 = CARTESIAN_POINT ( 'NONE',  ( 10.00000000000000000, 0.000000000000000000, 3.000000000000000888 ) ) ;
#186 = CARTESIAN_POINT ( 'NONE',  ( 0.000000000000000000, 0.000000000000000000, 5.000000000000000000 ) ) ;
#187 = CC_DESIGN_PERSON_AND_ORGANIZATION_ASSIGNMENT ( #8, #240, ( #291 ) ) ;
#188 = CARTESIAN_POINT ( 'NONE',  ( 0.000000000000000000, 0.000000000000000000, 3.000000000000000888 ) ) ;
#189 = EDGE_LOOP ( 'NONE', ( #75, #31, #24, #106 ) ) ;
#190 = DIRECTION ( 'NONE',  ( -1.000000000000000000, 0.000000000000000000, 0.000000000000000000 ) ) ;
#191 = EDGE_LOOP ( 'NONE', ( #207, #233 ) ) ;
#192 = ORIENTED_EDGE ( 'NONE', *, *, #116, .F. ) ;
#193 = VECTOR ( 'NONE', #167, 1000.000000000000114 ) ;
#194 = PRODUCT_DEFINITION_SHAPE ( 'NONE', 'NONE',  #123 ) ;
#195 = CYLINDRICAL_SURFACE ( 'NONE', #107, 10.00000000000000000 ) ;
#196 = EDGE_CURVE ( 'NONE', #281, #202, #256, .T. ) ;
#197 = APPROVAL_PERSON_ORGANIZATION ( #80, #62, #150 ) ;
#198 = ORIENTED_EDGE ( 'NONE', *, *, #18, .T. ) ;
#199 = CARTESIAN_POINT ( 'NONE',  ( 0.000000000000000000, 0.000000000000000000, 5.000000000000000000 ) ) ;
#200 = CC_DESIGN_APPROVAL ( #258, ( #123 ) ) ;
#201 = DIRECTION ( 'NONE',  ( 1.000000000000000000, 0.000000000000000000, 0.000000000000000000 ) ) ;
#202 = VERTEX_POINT ( 'NONE', #203 ) ;
#203 = CARTESIAN_POINT ( 'NONE',  ( -10.00000000000000000, 0.000000000000000000, 5.000000000000000000 ) ) ;
#204 = EDGE_CURVE ( 'NONE', #180, #270, #172, .T. ) ;
#205 = ORIENTED_EDGE ( 'NONE', *, *, #144, .F. ) ;
#206 = CARTESIAN_POINT ( 'NONE',  ( -6.999999999999992006, 1.040949779275249943E-15, 0.000000000000000000 ) ) ;
#207 = ORIENTED_EDGE ( 'NONE', *, *, #249, .T. ) ;
#208 = DIRECTION ( 'NONE',  ( -0.000000000000000000, -0.000000000000000000, -1.000000000000000000 ) ) ;
#209 = ORIENTED_EDGE ( 'NONE', *, *, #13, .T. ) ;
#210 = CYLINDRICAL_SURFACE ( 'NONE', #272, 5.099999999999999645 ) ;
#211 = APPROVAL_ROLE ( '' ) ;
#212 = DIRECTION ( 'NONE',  ( -0.000000000000000000, -0.000000000000000000, -1.000000000000000000 ) ) ;
#213 = DATE_AND_TIME ( #124, #220 ) ;
#214 = ORGANIZATION ( 'UNSPECIFIED', 'UNSPECIFIED', '' ) ;
#215 = COORDINATED_UNIVERSAL_TIME_OFFSET ( 1, 0, .AHEAD. ) ;
#216 = EDGE_CURVE ( 'NONE', #228, #270, #278, .T. ) ;
#217 = DATE_TIME_ROLE ( 'classification_date' ) ;
#218 = ORIENTED_EDGE ( 'NONE', *, *, #243, .F. ) ;
#219 = ORIENTED_EDGE ( 'NONE', *, *, #7, .T. ) ;
#220 = LOCAL_TIME ( 18, 33, 52.00000000000000000, #12 ) ;
#221 = ORIENTED_EDGE ( 'NONE', *, *, #243, .T. ) ;
#222 = CIRCLE ( 'NONE', #252, 5.099999999999999645 ) ;
#223 = DIRECTION ( 'NONE',  ( -0.000000000000000000, -0.000000000000000000, -1.000000000000000000 ) ) ;
#224 = EDGE_CURVE ( 'NONE', #115, #248, #2, .T. ) ;
#225 = FACE_OUTER_BOUND ( 'NONE', #279, .T. ) ;
#226 = DIRECTION ( 'NONE',  ( -0.7071067811865483499, 8.659560562354942719E-17, 0.7071067811865466846 ) ) ;
#227 = CARTESIAN_POINT ( 'NONE',  ( -10.00000000000000000, 0.000000000000000000, 5.000000000000000000 ) ) ;
#228 = VERTEX_POINT ( 'NONE', #84 ) ;
#229 = CARTESIAN_POINT ( 'NONE',  ( 0.000000000000000000, 0.000000000000000000, 10.00000000000000000 ) ) ;
#230 = DIRECTION ( 'NONE',  ( 1.000000000000000000, 0.000000000000000000, 0.000000000000000000 ) ) ;
#231 = CARTESIAN_POINT ( 'NONE',  ( 5.099999999999999645, 6.245698675651500839E-16, 10.00000000000000000 ) ) ;
#232 = ORIENTED_EDGE ( 'NONE', *, *, #224, .T. ) ;
#233 = ORIENTED_EDGE ( 'NONE', *, *, #235, .T. ) ;
#234 = PERSON_AND_ORGANIZATION ( #53, #214 ) ;
#235 = EDGE_CURVE ( 'NONE', #104, #72, #76, .T. ) ;
#236 = PERSON_AND_ORGANIZATION ( #53, #214 ) ;
#237 = CONICAL_SURFACE ( 'NONE', #275, 10.00000000000000000, 0.7853981633974495002 ) ;
#238 = PERSON_AND_ORGANIZATION ( #53, #214 ) ;
#239 = APPLICATION_CONTEXT ( 'configuration controlled 3d designs of mechanical parts and assemblies' ) ;
#240 = PERSON_AND_ORGANIZATION_ROLE ( 'creator' ) ;
#241 = CC_DESIGN_SECURITY_CLASSIFICATION ( #125, ( #291 ) ) ;
#242 = CARTESIAN_POINT ( 'NONE',  ( -5.099999999999999645, 0.000000000000000000, 5.000000000000000000 ) ) ;
#243 = EDGE_CURVE ( 'NONE', #248, #115, #110, .T. ) ;
#244 = CARTESIAN_POINT ( 'NONE',  ( 0.000000000000000000, 0.000000000000000000, 5.000000000000000000 ) ) ;
#245 = FACE_BOUND ( 'NONE', #4, .T. ) ;
#246 = AXIS2_PLACEMENT_3D ( 'NONE', #229, #223, #89 ) ;
#247 = DIRECTION ( 'NONE',  ( 0.000000000000000000, 0.000000000000000000, 1.000000000000000000 ) ) ;
#248 = VERTEX_POINT ( 'NONE', #21 ) ;
#249 = EDGE_CURVE ( 'NONE', #72, #104, #132, .T. ) ;
#250 = CARTESIAN_POINT ( 'NONE',  ( 0.000000000000000000, 0.000000000000000000, 3.000000000000000888 ) ) ;
#251 = CARTESIAN_POINT ( 'NONE',  ( 0.000000000000000000, 0.000000000000000000, 0.000000000000000000 ) ) ;
#252 = AXIS2_PLACEMENT_3D ( 'NONE', #298, #54, #230 ) ;
#253 = DIRECTION ( 'NONE',  ( -0.000000000000000000, -0.000000000000000000, 1.000000000000000000 ) ) ;
#254 = EDGE_LOOP ( 'NONE', ( #156, #136, #257, #218 ) ) ;
#255 = APPROVAL_ROLE ( '' ) ;
#256 = CIRCLE ( 'NONE', #11, 10.00000000000000000 ) ;
#257 = ORIENTED_EDGE ( 'NONE', *, *, #116, .T. ) ;
#258 = APPROVAL ( #175, 'UNSPECIFIED' ) ;
#259 = DIRECTION ( 'NONE',  ( 0.000000000000000000, 0.000000000000000000, 1.000000000000000000 ) ) ;
#260 = COORDINATED_UNIVERSAL_TIME_OFFSET ( 1, 0, .AHEAD. ) ;
#261 = LOCAL_TIME ( 18, 33, 52.00000000000000000, #260 ) ;
#262 = CALENDAR_DATE ( 2023, 14, 2 ) ;
#263 = EDGE_LOOP ( 'NONE', ( #113, #277 ) ) ;
#264 = AXIS2_PLACEMENT_3D ( 'NONE', #182, #71, #297 ) ;
#265 = ADVANCED_FACE ( 'NONE', ( #225 ), #237, .T. ) ;
#266 = VECTOR ( 'NONE', #28, 1000.000000000000000 ) ;
#267 = DIRECTION ( 'NONE',  ( -1.000000000000000000, 0.000000000000000000, 0.000000000000000000 ) ) ;
#268 = ORIENTED_EDGE ( 'NONE', *, *, #204, .F. ) ;
#269 = CARTESIAN_POINT ( 'NONE',  ( 5.099999999999999645, 6.245698675651500839E-16, 0.000000000000000000 ) ) ;
#270 = VERTEX_POINT ( 'NONE', #269 ) ;
#271 = APPROVAL_DATE_TIME ( #152, #62 ) ;
#272 = AXIS2_PLACEMENT_3D ( 'NONE', #184, #122, #29 ) ;
#273 = DIRECTION ( 'NONE',  ( -0.000000000000000000, -0.000000000000000000, -1.000000000000000000 ) ) ;
#274 = EDGE_LOOP ( 'NONE', ( #268, #140 ) ) ;
#275 = AXIS2_PLACEMENT_3D ( 'NONE', #295, #86, #183 ) ;
#276 = DIRECTION ( 'NONE',  ( -0.000000000000000000, -0.000000000000000000, -1.000000000000000000 ) ) ;
#277 = ORIENTED_EDGE ( 'NONE', *, *, #196, .T. ) ;
#278 = LINE ( 'NONE', #231, #51 ) ;
#279 = EDGE_LOOP ( 'NONE', ( #168, #219, #138, #192 ) ) ;
#280 = DATE_AND_TIME ( #262, #261 ) ;
#281 = VERTEX_POINT ( 'NONE', #160 ) ;
#282 = LOCAL_TIME ( 18, 33, 52.00000000000000000, #289 ) ;
#283 = CARTESIAN_POINT ( 'NONE',  ( 0.000000000000000000, 0.000000000000000000, 5.000000000000000000 ) ) ;
#284 = EDGE_CURVE ( 'NONE', #202, #281, #148, .T. ) ;
#285 = UNCERTAINTY_MEASURE_WITH_UNIT (LENGTH_MEASURE( 1.000000000000000082E-05 ), #103, 'distance_accuracy_value', 'NONE');
#286 = PERSON_AND_ORGANIZATION ( #53, #214 ) ;
#287 = VECTOR ( 'NONE', #226, 1000.000000000000114 ) ;
#288 = ADVANCED_FACE ( 'NONE', ( #112 ), #181, .T. ) ;
#289 = COORDINATED_UNIVERSAL_TIME_OFFSET ( 1, 0, .AHEAD. ) ;
#290 = APPROVAL ( #145, 'UNSPECIFIED' ) ;
#291 = PRODUCT_DEFINITION_FORMATION_WITH_SPECIFIED_SOURCE ( 'ANY', '', #81, .NOT_KNOWN. ) ;
#292 = AXIS2_PLACEMENT_3D ( 'NONE', #186, #68, #9 ) ;
#293 = SHAPE_DEFINITION_REPRESENTATION ( #194, #16 ) ;
#294 = DIRECTION ( 'NONE',  ( 0.000000000000000000, 0.000000000000000000, 1.000000000000000000 ) ) ;
#295 = CARTESIAN_POINT ( 'NONE',  ( 0.000000000000000000, 0.000000000000000000, 3.000000000000000888 ) ) ;
#296 = EDGE_LOOP ( 'NONE', ( #198, #143, #209, #92 ) ) ;
#297 = DIRECTION ( 'NONE',  ( 1.000000000000000000, 0.000000000000000000, 0.000000000000000000 ) ) ;
#298 = CARTESIAN_POINT ( 'NONE',  ( 0.000000000000000000, 0.000000000000000000, 5.000000000000000000 ) ) ;
#299 = CARTESIAN_POINT ( 'NONE',  ( -5.099999999999999645, 0.000000000000000000, 0.000000000000000000 ) ) ;
ENDSEC;
END-ISO-10303-21;
