ISO-10303-21;
HEADER;
FILE_DESCRIPTION (( 'STEP AP203' ),
    '1' );
FILE_NAME ('Bague rotule 5mm m8.STEP',
    '2023-02-14T17:33:14',
    ( '' ),
    ( '' ),
    'SwSTEP 2.0',
    'SolidWorks 2021',
    '' );
FILE_SCHEMA (( 'CONFIG_CONTROL_DESIGN' ));
ENDSEC;

DATA;
#1 = ORIENTED_EDGE ( 'NONE', *, *, #19, .F. ) ;
#2 = VECTOR ( 'NONE', #94, 1000.000000000000000 ) ;
#3 = CARTESIAN_POINT ( 'NONE',  ( -10.00000000000000000, 0.000000000000000000, 5.000000000000000000 ) ) ;
#4 = ORIENTED_EDGE ( 'NONE', *, *, #44, .F. ) ;
#5 =( NAMED_UNIT ( * ) PLANE_ANGLE_UNIT ( ) SI_UNIT ( $, .RADIAN. ) );
#6 = ORIENTED_EDGE ( 'NONE', *, *, #265, .T. ) ;
#7 = UNCERTAINTY_MEASURE_WITH_UNIT (LENGTH_MEASURE( 1.000000000000000082E-05 ), #287, 'distance_accuracy_value', 'NONE');
#8 = AXIS2_PLACEMENT_3D ( 'NONE', #104, #240, #268 ) ;
#9 = APPROVAL_ROLE ( '' ) ;
#10 = CARTESIAN_POINT ( 'NONE',  ( 0.000000000000000000, 0.000000000000000000, 5.000000000000000000 ) ) ;
#11 = DIRECTION ( 'NONE',  ( 0.000000000000000000, 0.000000000000000000, 1.000000000000000000 ) ) ;
#12 = CALENDAR_DATE ( 2023, 14, 2 ) ;
#13 = CALENDAR_DATE ( 2023, 14, 2 ) ;
#14 = PERSON_AND_ORGANIZATION ( #90, #184 ) ;
#15 = PERSON_AND_ORGANIZATION_ROLE ( 'design_supplier' ) ;
#16 = DATE_AND_TIME ( #217, #169 ) ;
#17 = CIRCLE ( 'NONE', #8, 10.00000000000000000 ) ;
#18 = CARTESIAN_POINT ( 'NONE',  ( 0.000000000000000000, 0.000000000000000000, 0.000000000000000000 ) ) ;
#19 = EDGE_CURVE ( 'NONE', #206, #133, #123, .T. ) ;
#20 = ADVANCED_FACE ( 'NONE', ( #273 ), #118, .T. ) ;
#21 = CARTESIAN_POINT ( 'NONE',  ( 0.000000000000000000, 0.000000000000000000, 0.000000000000000000 ) ) ;
#22 = EDGE_LOOP ( 'NONE', ( #52, #251, #227, #139 ) ) ;
#23 = DIRECTION ( 'NONE',  ( 0.000000000000000000, 0.000000000000000000, 1.000000000000000000 ) ) ;
#24 = ORIENTED_EDGE ( 'NONE', *, *, #229, .F. ) ;
#25 = AXIS2_PLACEMENT_3D ( 'NONE', #298, #88, #182 ) ;
#26 = LINE ( 'NONE', #132, #65 ) ;
#27 = EDGE_CURVE ( 'NONE', #131, #168, #189, .T. ) ;
#28 = ORIENTED_EDGE ( 'NONE', *, *, #173, .F. ) ;
#29 = DIRECTION ( 'NONE',  ( -1.000000000000000000, 0.000000000000000000, 0.000000000000000000 ) ) ;
#30 = ORIENTED_EDGE ( 'NONE', *, *, #68, .T. ) ;
#31 = DIRECTION ( 'NONE',  ( -0.000000000000000000, -0.000000000000000000, -1.000000000000000000 ) ) ;
#32 = VERTEX_POINT ( 'NONE', #286 ) ;
#33 = APPROVAL_STATUS ( 'not_yet_approved' ) ;
#34 = APPROVAL_PERSON_ORGANIZATION ( #124, #108, #194 ) ;
#35 = DATE_TIME_ROLE ( 'creation_date' ) ;
#36 = ADVANCED_FACE ( 'NONE', ( #183 ), #297, .T. ) ;
#37 = DATE_AND_TIME ( #127, #285 ) ;
#38 = AXIS2_PLACEMENT_3D ( 'NONE', #21, #223, #164 ) ;
#39 = SECURITY_CLASSIFICATION_LEVEL ( 'unclassified' ) ;
#40 = AXIS2_PLACEMENT_3D ( 'NONE', #172, #31, #281 ) ;
#41 = PERSON_AND_ORGANIZATION_ROLE ( 'classification_officer' ) ;
#42 = COORDINATED_UNIVERSAL_TIME_OFFSET ( 1, 0, .AHEAD. ) ;
#43 = CYLINDRICAL_SURFACE ( 'NONE', #156, 4.099999999999999645 ) ;
#44 = EDGE_CURVE ( 'NONE', #163, #133, #26, .T. ) ;
#45 = DIRECTION ( 'NONE',  ( -1.000000000000000000, 0.000000000000000000, 0.000000000000000000 ) ) ;
#46 = ORIENTED_EDGE ( 'NONE', *, *, #125, .T. ) ;
#47 = LINE ( 'NONE', #112, #166 ) ;
#48 = CARTESIAN_POINT ( 'NONE',  ( 0.000000000000000000, 0.000000000000000000, 3.000000000000000888 ) ) ;
#49 = CARTESIAN_POINT ( 'NONE',  ( -10.00000000000000000, 0.000000000000000000, 3.000000000000000888 ) ) ;
#50 = AXIS2_PLACEMENT_3D ( 'NONE', #10, #76, #208 ) ;
#51 = FACE_OUTER_BOUND ( 'NONE', #110, .T. ) ;
#52 = ORIENTED_EDGE ( 'NONE', *, *, #27, .T. ) ;
#53 = CC_DESIGN_DATE_AND_TIME_ASSIGNMENT ( #235, #35, ( #245 ) ) ;
#54 = PERSON_AND_ORGANIZATION ( #90, #184 ) ;
#55 =( NAMED_UNIT ( * ) SI_UNIT ( $, .STERADIAN. ) SOLID_ANGLE_UNIT ( ) );
#56 = CALENDAR_DATE ( 2023, 14, 2 ) ;
#57 = AXIS2_PLACEMENT_3D ( 'NONE', #115, #11, #256 ) ;
#58 = LINE ( 'NONE', #193, #2 ) ;
#59 = PERSON_AND_ORGANIZATION_ROLE ( 'creator' ) ;
#60 = APPROVAL_DATE_TIME ( #16, #108 ) ;
#61 = AXIS2_PLACEMENT_3D ( 'NONE', #277, #294, #295 ) ;
#62 = FACE_OUTER_BOUND ( 'NONE', #73, .T. ) ;
#63 = PLANE ( 'NONE',  #103 ) ;
#64 = EDGE_LOOP ( 'NONE', ( #230, #279, #136, #276 ) ) ;
#65 = VECTOR ( 'NONE', #135, 1000.000000000000000 ) ;
#66 = CARTESIAN_POINT ( 'NONE',  ( 0.000000000000000000, 0.000000000000000000, 5.000000000000000000 ) ) ;
#67 = ORIENTED_EDGE ( 'NONE', *, *, #19, .T. ) ;
#68 = EDGE_CURVE ( 'NONE', #32, #133, #47, .T. ) ;
#69 = FACE_OUTER_BOUND ( 'NONE', #64, .T. ) ;
#70 = ORIENTED_EDGE ( 'NONE', *, *, #125, .F. ) ;
#71 = ADVANCED_FACE ( 'NONE', ( #62 ), #249, .T. ) ;
#72 = FACE_BOUND ( 'NONE', #91, .T. ) ;
#73 = EDGE_LOOP ( 'NONE', ( #74, #270, #30, #1 ) ) ;
#74 = ORIENTED_EDGE ( 'NONE', *, *, #231, .F. ) ;
#75 = DIRECTION ( 'NONE',  ( -1.000000000000000000, 0.000000000000000000, 0.000000000000000000 ) ) ;
#76 = DIRECTION ( 'NONE',  ( 0.000000000000000000, 0.000000000000000000, 1.000000000000000000 ) ) ;
#77 = EDGE_CURVE ( 'NONE', #163, #204, #17, .T. ) ;
#78 = DIRECTION ( 'NONE',  ( -0.000000000000000000, -0.000000000000000000, 1.000000000000000000 ) ) ;
#79 = APPROVAL_STATUS ( 'not_yet_approved' ) ;
#80 = DATE_AND_TIME ( #13, #120 ) ;
#81 = APPROVAL ( #33, 'UNSPECIFIED' ) ;
#82 = AXIS2_PLACEMENT_3D ( 'NONE', #196, #178, #96 ) ;
#83 = CARTESIAN_POINT ( 'NONE',  ( 4.099999999999999645, 5.021051876504147385E-16, 5.000000000000000000 ) ) ;
#84 = CC_DESIGN_APPROVAL ( #162, ( #221 ) ) ;
#85 = CARTESIAN_POINT ( 'NONE',  ( 10.00000000000000000, 1.224646799147353256E-15, 3.000000000000000888 ) ) ;
#86 = EDGE_LOOP ( 'NONE', ( #199, #180, #24, #116 ) ) ;
#87 = DIRECTION ( 'NONE',  ( -0.000000000000000000, -0.000000000000000000, 1.000000000000000000 ) ) ;
#88 = DIRECTION ( 'NONE',  ( -0.000000000000000000, -0.000000000000000000, 1.000000000000000000 ) ) ;
#89 = CARTESIAN_POINT ( 'NONE',  ( 0.000000000000000000, 0.000000000000000000, 0.000000000000000000 ) ) ;
#90 = PERSON ( 'UNSPECIFIED', 'UNSPECIFIED', 'UNSPECIFIED', ('UNSPECIFIED'), ('UNSPECIFIED'), ('UNSPECIFIED') ) ;
#91 = EDGE_LOOP ( 'NONE', ( #242, #70 ) ) ;
#92 = CARTESIAN_POINT ( 'NONE',  ( 0.000000000000000000, 0.000000000000000000, 5.000000000000000000 ) ) ;
#93 = ORIENTED_EDGE ( 'NONE', *, *, #237, .F. ) ;
#94 = DIRECTION ( 'NONE',  ( -0.000000000000000000, -0.000000000000000000, -1.000000000000000000 ) ) ;
#95 = DIRECTION ( 'NONE',  ( -0.000000000000000000, -0.000000000000000000, 1.000000000000000000 ) ) ;
#96 = DIRECTION ( 'NONE',  ( 1.000000000000000000, 0.000000000000000000, -0.000000000000000000 ) ) ;
#97 = DIRECTION ( 'NONE',  ( -0.7071067811865483499, 8.659560562354942719E-17, 0.7071067811865466846 ) ) ;
#98 = CARTESIAN_POINT ( 'NONE',  ( -4.099999999999999645, 0.000000000000000000, 10.00000000000000000 ) ) ;
#99 = APPROVAL_DATE_TIME ( #80, #162 ) ;
#100 = APPROVAL_ROLE ( '' ) ;
#101 = VECTOR ( 'NONE', #138, 1000.000000000000000 ) ;
#102 = LOCAL_TIME ( 18, 33, 14.00000000000000000, #212 ) ;
#103 = AXIS2_PLACEMENT_3D ( 'NONE', #18, #241, #106 ) ;
#104 = CARTESIAN_POINT ( 'NONE',  ( 0.000000000000000000, 0.000000000000000000, 5.000000000000000000 ) ) ;
#105 = SECURITY_CLASSIFICATION ( '', '', #39 ) ;
#106 = DIRECTION ( 'NONE',  ( 1.000000000000000000, 0.000000000000000000, -0.000000000000000000 ) ) ;
#107 = ORIENTED_EDGE ( 'NONE', *, *, #173, .T. ) ;
#108 = APPROVAL ( #261, 'UNSPECIFIED' ) ;
#109 = FACE_OUTER_BOUND ( 'NONE', #113, .T. ) ;
#110 = EDGE_LOOP ( 'NONE', ( #188, #202 ) ) ;
#111 = AXIS2_PLACEMENT_3D ( 'NONE', #275, #23, #130 ) ;
#112 = CARTESIAN_POINT ( 'NONE',  ( 10.00000000000000000, 0.000000000000000000, 3.000000000000000888 ) ) ;
#113 = EDGE_LOOP ( 'NONE', ( #248, #46, #254, #107 ) ) ;
#114 = ADVANCED_FACE ( 'NONE', ( #222 ), #43, .F. ) ;
#115 = CARTESIAN_POINT ( 'NONE',  ( 0.000000000000000000, 0.000000000000000000, 5.000000000000000000 ) ) ;
#116 = ORIENTED_EDGE ( 'NONE', *, *, #68, .F. ) ;
#117 = ORIENTED_EDGE ( 'NONE', *, *, #234, .T. ) ;
#118 = CONICAL_SURFACE ( 'NONE', #291, 10.00000000000000000, 0.7853981633974495002 ) ;
#119 = DIRECTION ( 'NONE',  ( 1.000000000000000000, 0.000000000000000000, 0.000000000000000000 ) ) ;
#120 = LOCAL_TIME ( 18, 33, 14.00000000000000000, #148 ) ;
#121 = PERSON_AND_ORGANIZATION_ROLE ( 'creator' ) ;
#122 = DIRECTION ( 'NONE',  ( -0.000000000000000000, -0.000000000000000000, -1.000000000000000000 ) ) ;
#123 = CIRCLE ( 'NONE', #25, 10.00000000000000000 ) ;
#124 = PERSON_AND_ORGANIZATION ( #90, #184 ) ;
#125 = EDGE_CURVE ( 'NONE', #168, #131, #293, .T. ) ;
#126 = ADVANCED_FACE ( 'NONE', ( #109 ), #185, .F. ) ;
#127 = CALENDAR_DATE ( 2023, 14, 2 ) ;
#128 = EDGE_CURVE ( 'NONE', #168, #296, #155, .T. ) ;
#129 = CARTESIAN_POINT ( 'NONE',  ( 4.099999999999999645, 5.021051876504147385E-16, 10.00000000000000000 ) ) ;
#130 = DIRECTION ( 'NONE',  ( 1.000000000000000000, 0.000000000000000000, 0.000000000000000000 ) ) ;
#131 = VERTEX_POINT ( 'NONE', #201 ) ;
#132 = CARTESIAN_POINT ( 'NONE',  ( 10.00000000000000000, 1.224646799147353256E-15, 5.000000000000000000 ) ) ;
#133 = VERTEX_POINT ( 'NONE', #85 ) ;
#134 = APPLICATION_CONTEXT ( 'configuration controlled 3d designs of mechanical parts and assemblies' ) ;
#135 = DIRECTION ( 'NONE',  ( -0.000000000000000000, -0.000000000000000000, -1.000000000000000000 ) ) ;
#136 = ORIENTED_EDGE ( 'NONE', *, *, #229, .T. ) ;
#137 = AXIS2_PLACEMENT_3D ( 'NONE', #92, #198, #45 ) ;
#138 = DIRECTION ( 'NONE',  ( -0.000000000000000000, -0.000000000000000000, -1.000000000000000000 ) ) ;
#139 = ORIENTED_EDGE ( 'NONE', *, *, #257, .F. ) ;
#140 = APPROVAL_PERSON_ORGANIZATION ( #228, #81, #9 ) ;
#141 = APPLICATION_PROTOCOL_DEFINITION ( 'international standard', 'config_control_design', 1994, #149 ) ;
#142 = DESIGN_CONTEXT ( 'detailed design', #149, 'design' ) ;
#143 = CIRCLE ( 'NONE', #238, 10.00000000000000000 ) ;
#144 = CARTESIAN_POINT ( 'NONE',  ( 0.000000000000000000, 0.000000000000000000, 0.000000000000000000 ) ) ;
#145 = CC_DESIGN_SECURITY_CLASSIFICATION ( #105, ( #221 ) ) ;
#146 = PRODUCT ( 'Bague rotule 5mm m8', 'Bague rotule 5mm m8', '', ( #167 ) ) ;
#147 = LINE ( 'NONE', #175, #289 ) ;
#148 = COORDINATED_UNIVERSAL_TIME_OFFSET ( 1, 0, .AHEAD. ) ;
#149 = APPLICATION_CONTEXT ( 'configuration controlled 3d designs of mechanical parts and assemblies' ) ;
#150 = EDGE_CURVE ( 'NONE', #32, #160, #263, .T. ) ;
#151 = CIRCLE ( 'NONE', #57, 10.00000000000000000 ) ;
#152 = ADVANCED_FACE ( 'NONE', ( #69 ), #250, .T. ) ;
#153 = CIRCLE ( 'NONE', #40, 6.999999999999992006 ) ;
#154 = DIRECTION ( 'NONE',  ( 1.000000000000000000, 0.000000000000000000, 0.000000000000000000 ) ) ;
#155 = LINE ( 'NONE', #129, #101 ) ;
#156 = AXIS2_PLACEMENT_3D ( 'NONE', #181, #244, #197 ) ;
#157 = EDGE_LOOP ( 'NONE', ( #4, #283, #6, #67 ) ) ;
#158 = DIRECTION ( 'NONE',  ( 0.7071067811865483499, 0.000000000000000000, 0.7071067811865466846 ) ) ;
#159 = AXIS2_PLACEMENT_3D ( 'NONE', #144, #290, #119 ) ;
#160 = VERTEX_POINT ( 'NONE', #203 ) ;
#161 = FACE_BOUND ( 'NONE', #225, .T. ) ;
#162 = APPROVAL ( #79, 'UNSPECIFIED' ) ;
#163 = VERTEX_POINT ( 'NONE', #269 ) ;
#164 = DIRECTION ( 'NONE',  ( 1.000000000000000000, 0.000000000000000000, 0.000000000000000000 ) ) ;
#165 = VERTEX_POINT ( 'NONE', #299 ) ;
#166 = VECTOR ( 'NONE', #158, 1000.000000000000114 ) ;
#167 = MECHANICAL_CONTEXT ( 'NONE', #134, 'mechanical' ) ;
#168 = VERTEX_POINT ( 'NONE', #83 ) ;
#169 = LOCAL_TIME ( 18, 33, 14.00000000000000000, #213 ) ;
#170 = DATE_AND_TIME ( #56, #233 ) ;
#171 = ADVANCED_FACE ( 'NONE', ( #179, #161 ), #63, .F. ) ;
#172 = CARTESIAN_POINT ( 'NONE',  ( 0.000000000000000000, 0.000000000000000000, 0.000000000000000000 ) ) ;
#173 = EDGE_CURVE ( 'NONE', #165, #296, #195, .T. ) ;
#174 = AXIS2_PLACEMENT_3D ( 'NONE', #253, #190, #75 ) ;
#175 = CARTESIAN_POINT ( 'NONE',  ( -10.00000000000000000, 1.224646799147353256E-15, 3.000000000000000888 ) ) ;
#176 = CC_DESIGN_PERSON_AND_ORGANIZATION_ASSIGNMENT ( #207, #288, ( #146 ) ) ;
#177 = ADVANCED_BREP_SHAPE_REPRESENTATION ( 'Bague rotule 5mm m8', ( #200, #159 ), #267 ) ;
#178 = DIRECTION ( 'NONE',  ( 0.000000000000000000, 0.000000000000000000, 1.000000000000000000 ) ) ;
#179 = FACE_OUTER_BOUND ( 'NONE', #186, .T. ) ;
#180 = ORIENTED_EDGE ( 'NONE', *, *, #231, .T. ) ;
#181 = CARTESIAN_POINT ( 'NONE',  ( 0.000000000000000000, 0.000000000000000000, 10.00000000000000000 ) ) ;
#182 = DIRECTION ( 'NONE',  ( 1.000000000000000000, 0.000000000000000000, 0.000000000000000000 ) ) ;
#183 = FACE_OUTER_BOUND ( 'NONE', #157, .T. ) ;
#184 = ORGANIZATION ( 'UNSPECIFIED', 'UNSPECIFIED', '' ) ;
#185 = CYLINDRICAL_SURFACE ( 'NONE', #61, 4.099999999999999645 ) ;
#186 = EDGE_LOOP ( 'NONE', ( #246, #117 ) ) ;
#187 = APPLICATION_PROTOCOL_DEFINITION ( 'international standard', 'config_control_design', 1994, #134 ) ;
#188 = ORIENTED_EDGE ( 'NONE', *, *, #266, .T. ) ;
#189 = CIRCLE ( 'NONE', #50, 4.099999999999999645 ) ;
#190 = DIRECTION ( 'NONE',  ( 0.000000000000000000, 0.000000000000000000, -1.000000000000000000 ) ) ;
#191 = DIRECTION ( 'NONE',  ( 1.000000000000000000, 0.000000000000000000, 0.000000000000000000 ) ) ;
#192 = CC_DESIGN_APPROVAL ( #81, ( #245 ) ) ;
#193 = CARTESIAN_POINT ( 'NONE',  ( -10.00000000000000000, 0.000000000000000000, 5.000000000000000000 ) ) ;
#194 = APPROVAL_ROLE ( '' ) ;
#195 = CIRCLE ( 'NONE', #280, 4.099999999999999645 ) ;
#196 = CARTESIAN_POINT ( 'NONE',  ( 0.000000000000000000, 0.000000000000000000, 5.000000000000000000 ) ) ;
#197 = DIRECTION ( 'NONE',  ( -1.000000000000000000, 0.000000000000000000, 0.000000000000000000 ) ) ;
#198 = DIRECTION ( 'NONE',  ( -0.000000000000000000, -0.000000000000000000, -1.000000000000000000 ) ) ;
#199 = ORIENTED_EDGE ( 'NONE', *, *, #234, .F. ) ;
#200 = MANIFOLD_SOLID_BREP ( 'Chanfrein1', #209 ) ;
#201 = CARTESIAN_POINT ( 'NONE',  ( -4.099999999999999645, 0.000000000000000000, 5.000000000000000000 ) ) ;
#202 = ORIENTED_EDGE ( 'NONE', *, *, #77, .T. ) ;
#203 = CARTESIAN_POINT ( 'NONE',  ( -6.999999999999992006, 1.040949779275249943E-15, 0.000000000000000000 ) ) ;
#204 = VERTEX_POINT ( 'NONE', #3 ) ;
#205 = DIRECTION ( 'NONE',  ( 1.000000000000000000, 0.000000000000000000, 0.000000000000000000 ) ) ;
#206 = VERTEX_POINT ( 'NONE', #49 ) ;
#207 = PERSON_AND_ORGANIZATION ( #90, #184 ) ;
#208 = DIRECTION ( 'NONE',  ( 1.000000000000000000, 0.000000000000000000, 0.000000000000000000 ) ) ;
#209 = CLOSED_SHELL ( 'NONE', ( #20, #114, #152, #36, #211, #171, #126, #71 ) ) ;
#210 = CARTESIAN_POINT ( 'NONE',  ( 4.099999999999999645, 5.021051876504147385E-16, 0.000000000000000000 ) ) ;
#211 = ADVANCED_FACE ( 'NONE', ( #72, #51 ), #226, .T. ) ;
#212 = COORDINATED_UNIVERSAL_TIME_OFFSET ( 1, 0, .AHEAD. ) ;
#213 = COORDINATED_UNIVERSAL_TIME_OFFSET ( 1, 0, .AHEAD. ) ;
#214 = CC_DESIGN_PERSON_AND_ORGANIZATION_ASSIGNMENT ( #236, #41, ( #105 ) ) ;
#215 = APPROVAL_PERSON_ORGANIZATION ( #14, #162, #100 ) ;
#216 = DATE_TIME_ROLE ( 'classification_date' ) ;
#217 = CALENDAR_DATE ( 2023, 14, 2 ) ;
#218 = CC_DESIGN_PERSON_AND_ORGANIZATION_ASSIGNMENT ( #259, #59, ( #221 ) ) ;
#219 = VECTOR ( 'NONE', #122, 1000.000000000000000 ) ;
#220 = DIRECTION ( 'NONE',  ( -1.000000000000000000, 0.000000000000000000, 0.000000000000000000 ) ) ;
#221 = PRODUCT_DEFINITION_FORMATION_WITH_SPECIFIED_SOURCE ( 'ANY', '', #146, .NOT_KNOWN. ) ;
#222 = FACE_OUTER_BOUND ( 'NONE', #22, .T. ) ;
#223 = DIRECTION ( 'NONE',  ( -0.000000000000000000, -0.000000000000000000, -1.000000000000000000 ) ) ;
#224 = DIRECTION ( 'NONE',  ( -0.000000000000000000, -0.000000000000000000, -1.000000000000000000 ) ) ;
#225 = EDGE_LOOP ( 'NONE', ( #28, #93 ) ) ;
#226 = PLANE ( 'NONE',  #82 ) ;
#227 = ORIENTED_EDGE ( 'NONE', *, *, #237, .T. ) ;
#228 = PERSON_AND_ORGANIZATION ( #90, #184 ) ;
#229 = EDGE_CURVE ( 'NONE', #133, #206, #143, .T. ) ;
#230 = ORIENTED_EDGE ( 'NONE', *, *, #77, .F. ) ;
#231 = EDGE_CURVE ( 'NONE', #160, #206, #147, .T. ) ;
#232 = AXIS2_PLACEMENT_3D ( 'NONE', #272, #87, #154 ) ;
#233 = LOCAL_TIME ( 18, 33, 14.00000000000000000, #258 ) ;
#234 = EDGE_CURVE ( 'NONE', #160, #32, #153, .T. ) ;
#235 = DATE_AND_TIME ( #12, #102 ) ;
#236 = PERSON_AND_ORGANIZATION ( #90, #184 ) ;
#237 = EDGE_CURVE ( 'NONE', #296, #165, #274, .T. ) ;
#238 = AXIS2_PLACEMENT_3D ( 'NONE', #284, #78, #205 ) ;
#239 = CC_DESIGN_PERSON_AND_ORGANIZATION_ASSIGNMENT ( #54, #121, ( #245 ) ) ;
#240 = DIRECTION ( 'NONE',  ( 0.000000000000000000, 0.000000000000000000, 1.000000000000000000 ) ) ;
#241 = DIRECTION ( 'NONE',  ( 0.000000000000000000, 0.000000000000000000, 1.000000000000000000 ) ) ;
#242 = ORIENTED_EDGE ( 'NONE', *, *, #27, .F. ) ;
#243 = CC_DESIGN_APPROVAL ( #108, ( #105 ) ) ;
#244 = DIRECTION ( 'NONE',  ( -0.000000000000000000, -0.000000000000000000, -1.000000000000000000 ) ) ;
#245 = PRODUCT_DEFINITION ( 'UNKNOWN', '', #221, #142 ) ;
#246 = ORIENTED_EDGE ( 'NONE', *, *, #150, .T. ) ;
#247 = DIRECTION ( 'NONE',  ( 0.000000000000000000, 0.000000000000000000, -1.000000000000000000 ) ) ;
#248 = ORIENTED_EDGE ( 'NONE', *, *, #128, .F. ) ;
#249 = CONICAL_SURFACE ( 'NONE', #232, 10.00000000000000000, 0.7853981633974495002 ) ;
#250 = CYLINDRICAL_SURFACE ( 'NONE', #271, 10.00000000000000000 ) ;
#251 = ORIENTED_EDGE ( 'NONE', *, *, #128, .T. ) ;
#252 = CC_DESIGN_PERSON_AND_ORGANIZATION_ASSIGNMENT ( #292, #15, ( #221 ) ) ;
#253 = CARTESIAN_POINT ( 'NONE',  ( 0.000000000000000000, 0.000000000000000000, 0.000000000000000000 ) ) ;
#254 = ORIENTED_EDGE ( 'NONE', *, *, #257, .T. ) ;
#255 = APPROVAL_DATE_TIME ( #170, #81 ) ;
#256 = DIRECTION ( 'NONE',  ( 1.000000000000000000, 0.000000000000000000, 0.000000000000000000 ) ) ;
#257 = EDGE_CURVE ( 'NONE', #131, #165, #260, .T. ) ;
#258 = COORDINATED_UNIVERSAL_TIME_OFFSET ( 1, 0, .AHEAD. ) ;
#259 = PERSON_AND_ORGANIZATION ( #90, #184 ) ;
#260 = LINE ( 'NONE', #98, #219 ) ;
#261 = APPROVAL_STATUS ( 'not_yet_approved' ) ;
#262 = SHAPE_DEFINITION_REPRESENTATION ( #282, #177 ) ;
#263 = CIRCLE ( 'NONE', #38, 6.999999999999992006 ) ;
#264 = CC_DESIGN_DATE_AND_TIME_ASSIGNMENT ( #37, #216, ( #105 ) ) ;
#265 = EDGE_CURVE ( 'NONE', #204, #206, #58, .T. ) ;
#266 = EDGE_CURVE ( 'NONE', #204, #163, #151, .T. ) ;
#267 =( GEOMETRIC_REPRESENTATION_CONTEXT ( 3 ) GLOBAL_UNCERTAINTY_ASSIGNED_CONTEXT ( ( #7 ) ) GLOBAL_UNIT_ASSIGNED_CONTEXT ( ( #287, #5, #55 ) ) REPRESENTATION_CONTEXT ( 'NONE', 'WORKASPACE' ) );
#268 = DIRECTION ( 'NONE',  ( 1.000000000000000000, 0.000000000000000000, 0.000000000000000000 ) ) ;
#269 = CARTESIAN_POINT ( 'NONE',  ( 10.00000000000000000, 1.224646799147353256E-15, 5.000000000000000000 ) ) ;
#270 = ORIENTED_EDGE ( 'NONE', *, *, #150, .F. ) ;
#271 = AXIS2_PLACEMENT_3D ( 'NONE', #66, #224, #220 ) ;
#272 = CARTESIAN_POINT ( 'NONE',  ( 0.000000000000000000, 0.000000000000000000, 3.000000000000000888 ) ) ;
#273 = FACE_OUTER_BOUND ( 'NONE', #86, .T. ) ;
#274 = CIRCLE ( 'NONE', #174, 4.099999999999999645 ) ;
#275 = CARTESIAN_POINT ( 'NONE',  ( 0.000000000000000000, 0.000000000000000000, 5.000000000000000000 ) ) ;
#276 = ORIENTED_EDGE ( 'NONE', *, *, #265, .F. ) ;
#277 = CARTESIAN_POINT ( 'NONE',  ( 0.000000000000000000, 0.000000000000000000, 10.00000000000000000 ) ) ;
#278 = PRODUCT_RELATED_PRODUCT_CATEGORY ( 'detail', '', ( #146 ) ) ;
#279 = ORIENTED_EDGE ( 'NONE', *, *, #44, .T. ) ;
#280 = AXIS2_PLACEMENT_3D ( 'NONE', #89, #247, #29 ) ;
#281 = DIRECTION ( 'NONE',  ( 1.000000000000000000, 0.000000000000000000, 0.000000000000000000 ) ) ;
#282 = PRODUCT_DEFINITION_SHAPE ( 'NONE', 'NONE',  #245 ) ;
#283 = ORIENTED_EDGE ( 'NONE', *, *, #266, .F. ) ;
#284 = CARTESIAN_POINT ( 'NONE',  ( 0.000000000000000000, 0.000000000000000000, 3.000000000000000888 ) ) ;
#285 = LOCAL_TIME ( 18, 33, 14.00000000000000000, #42 ) ;
#286 = CARTESIAN_POINT ( 'NONE',  ( 6.999999999999992006, 0.000000000000000000, 0.000000000000000000 ) ) ;
#287 =( LENGTH_UNIT ( ) NAMED_UNIT ( * ) SI_UNIT ( .MILLI., .METRE. ) );
#288 = PERSON_AND_ORGANIZATION_ROLE ( 'design_owner' ) ;
#289 = VECTOR ( 'NONE', #97, 1000.000000000000114 ) ;
#290 = DIRECTION ( 'NONE',  ( 0.000000000000000000, 0.000000000000000000, 1.000000000000000000 ) ) ;
#291 = AXIS2_PLACEMENT_3D ( 'NONE', #48, #95, #191 ) ;
#292 = PERSON_AND_ORGANIZATION ( #90, #184 ) ;
#293 = CIRCLE ( 'NONE', #111, 4.099999999999999645 ) ;
#294 = DIRECTION ( 'NONE',  ( -0.000000000000000000, -0.000000000000000000, -1.000000000000000000 ) ) ;
#295 = DIRECTION ( 'NONE',  ( -1.000000000000000000, 0.000000000000000000, 0.000000000000000000 ) ) ;
#296 = VERTEX_POINT ( 'NONE', #210 ) ;
#297 = CYLINDRICAL_SURFACE ( 'NONE', #137, 10.00000000000000000 ) ;
#298 = CARTESIAN_POINT ( 'NONE',  ( 0.000000000000000000, 0.000000000000000000, 3.000000000000000888 ) ) ;
#299 = CARTESIAN_POINT ( 'NONE',  ( -4.099999999999999645, 0.000000000000000000, 0.000000000000000000 ) ) ;
ENDSEC;
END-ISO-10303-21;
