ISO-10303-21;
HEADER;
/* Generated by software containing ST-Developer
 * from STEP Tools, Inc. (www.steptools.com) 
 */

FILE_DESCRIPTION(
/* description */ (''),
/* implementation_level */ '2;1');

FILE_NAME(
/* name */ 'Bague.stp',
/* time_stamp */ '2023-02-01T11:56:55+01:00',
/* author */ ('snowak'),
/* organization */ (''),
/* preprocessor_version */ 'ST-DEVELOPER v19.2',
/* originating_system */ 'Autodesk Inventor 2023',
/* authorisation */ '');

FILE_SCHEMA (('AUTOMOTIVE_DESIGN { 1 0 10303 214 3 1 1 }'));
ENDSEC;

DATA;
#10=MECHANICAL_DESIGN_GEOMETRIC_PRESENTATION_REPRESENTATION('',(#13),#229);
#11=SHAPE_REPRESENTATION_RELATIONSHIP('SRR','None',#236,#12);
#12=ADVANCED_BREP_SHAPE_REPRESENTATION('',(#14),#228);
#13=STYLED_ITEM('',(#245),#14);
#14=MANIFOLD_SOLID_BREP('Solide1',#118);
#15=FACE_BOUND('',#35,.T.);
#16=FACE_BOUND('',#38,.T.);
#17=FACE_BOUND('',#40,.T.);
#18=PLANE('',#146);
#19=PLANE('',#150);
#20=PLANE('',#152);
#21=CYLINDRICAL_SURFACE('',#144,12.75);
#22=CYLINDRICAL_SURFACE('',#155,18.);
#23=CYLINDRICAL_SURFACE('',#156,15.);
#24=FACE_OUTER_BOUND('',#32,.T.);
#25=FACE_OUTER_BOUND('',#33,.T.);
#26=FACE_OUTER_BOUND('',#34,.T.);
#27=FACE_OUTER_BOUND('',#36,.T.);
#28=FACE_OUTER_BOUND('',#37,.T.);
#29=FACE_OUTER_BOUND('',#39,.T.);
#30=FACE_OUTER_BOUND('',#41,.T.);
#31=FACE_OUTER_BOUND('',#42,.T.);
#32=EDGE_LOOP('',(#82,#83,#84,#85));
#33=EDGE_LOOP('',(#86,#87,#88,#89));
#34=EDGE_LOOP('',(#90));
#35=EDGE_LOOP('',(#91));
#36=EDGE_LOOP('',(#92,#93,#94,#95));
#37=EDGE_LOOP('',(#96));
#38=EDGE_LOOP('',(#97));
#39=EDGE_LOOP('',(#98));
#40=EDGE_LOOP('',(#99));
#41=EDGE_LOOP('',(#100,#101,#102,#103));
#42=EDGE_LOOP('',(#104,#105,#106,#107));
#43=LINE('',#201,#48);
#44=LINE('',#206,#49);
#45=LINE('',#212,#50);
#46=LINE('',#223,#51);
#47=LINE('',#225,#52);
#48=VECTOR('',#163,13.);
#49=VECTOR('',#170,12.75);
#50=VECTOR('',#177,13.);
#51=VECTOR('',#192,18.);
#52=VECTOR('',#195,15.);
#53=CIRCLE('',#142,13.25);
#54=CIRCLE('',#143,12.75);
#55=CIRCLE('',#145,12.75);
#56=CIRCLE('',#147,15.);
#57=CIRCLE('',#149,13.25);
#58=CIRCLE('',#151,18.);
#59=CIRCLE('',#153,18.);
#60=CIRCLE('',#154,15.);
#61=VERTEX_POINT('',#198);
#62=VERTEX_POINT('',#200);
#63=VERTEX_POINT('',#204);
#64=VERTEX_POINT('',#208);
#65=VERTEX_POINT('',#211);
#66=VERTEX_POINT('',#215);
#67=VERTEX_POINT('',#218);
#68=VERTEX_POINT('',#220);
#69=EDGE_CURVE('',#61,#61,#53,.T.);
#70=EDGE_CURVE('',#61,#62,#43,.T.);
#71=EDGE_CURVE('',#62,#62,#54,.T.);
#72=EDGE_CURVE('',#63,#63,#55,.T.);
#73=EDGE_CURVE('',#63,#62,#44,.T.);
#74=EDGE_CURVE('',#64,#64,#56,.T.);
#75=EDGE_CURVE('',#63,#65,#45,.T.);
#76=EDGE_CURVE('',#65,#65,#57,.T.);
#77=EDGE_CURVE('',#66,#66,#58,.T.);
#78=EDGE_CURVE('',#67,#67,#59,.T.);
#79=EDGE_CURVE('',#68,#68,#60,.T.);
#80=EDGE_CURVE('',#67,#66,#46,.T.);
#81=EDGE_CURVE('',#64,#68,#47,.T.);
#82=ORIENTED_EDGE('',*,*,#69,.T.);
#83=ORIENTED_EDGE('',*,*,#70,.T.);
#84=ORIENTED_EDGE('',*,*,#71,.T.);
#85=ORIENTED_EDGE('',*,*,#70,.F.);
#86=ORIENTED_EDGE('',*,*,#72,.F.);
#87=ORIENTED_EDGE('',*,*,#73,.T.);
#88=ORIENTED_EDGE('',*,*,#71,.F.);
#89=ORIENTED_EDGE('',*,*,#73,.F.);
#90=ORIENTED_EDGE('',*,*,#74,.F.);
#91=ORIENTED_EDGE('',*,*,#69,.F.);
#92=ORIENTED_EDGE('',*,*,#72,.T.);
#93=ORIENTED_EDGE('',*,*,#75,.T.);
#94=ORIENTED_EDGE('',*,*,#76,.T.);
#95=ORIENTED_EDGE('',*,*,#75,.F.);
#96=ORIENTED_EDGE('',*,*,#77,.T.);
#97=ORIENTED_EDGE('',*,*,#76,.F.);
#98=ORIENTED_EDGE('',*,*,#78,.T.);
#99=ORIENTED_EDGE('',*,*,#79,.F.);
#100=ORIENTED_EDGE('',*,*,#78,.F.);
#101=ORIENTED_EDGE('',*,*,#80,.T.);
#102=ORIENTED_EDGE('',*,*,#77,.F.);
#103=ORIENTED_EDGE('',*,*,#80,.F.);
#104=ORIENTED_EDGE('',*,*,#74,.T.);
#105=ORIENTED_EDGE('',*,*,#81,.T.);
#106=ORIENTED_EDGE('',*,*,#79,.T.);
#107=ORIENTED_EDGE('',*,*,#81,.F.);
#108=CONICAL_SURFACE('',#141,13.,0.785398163397451);
#109=CONICAL_SURFACE('',#148,13.,0.785398163397451);
#110=ADVANCED_FACE('',(#24),#108,.F.);
#111=ADVANCED_FACE('',(#25),#21,.F.);
#112=ADVANCED_FACE('',(#26,#15),#18,.F.);
#113=ADVANCED_FACE('',(#27),#109,.F.);
#114=ADVANCED_FACE('',(#28,#16),#19,.T.);
#115=ADVANCED_FACE('',(#29,#17),#20,.F.);
#116=ADVANCED_FACE('',(#30),#22,.T.);
#117=ADVANCED_FACE('',(#31),#23,.T.);
#118=CLOSED_SHELL('',(#110,#111,#112,#113,#114,#115,#116,#117));
#119=DERIVED_UNIT_ELEMENT(#122,1.);
#120=DERIVED_UNIT_ELEMENT(#231,-3.);
#121=DIMENSIONAL_EXPONENTS(0.,1.,0.,0.,0.,0.,0.);
#122=(
CONVERSION_BASED_UNIT('gram',#124)
MASS_UNIT()
NAMED_UNIT(#121)
);
#123=(
MASS_UNIT()
NAMED_UNIT(*)
SI_UNIT(.KILO.,.GRAM.)
);
#124=MASS_MEASURE_WITH_UNIT(MASS_MEASURE(0.001),#123);
#125=DERIVED_UNIT((#119,#120));
#126=MEASURE_REPRESENTATION_ITEM('density measure',
POSITIVE_RATIO_MEASURE(1.),#125);
#127=PROPERTY_DEFINITION_REPRESENTATION(#132,#129);
#128=PROPERTY_DEFINITION_REPRESENTATION(#133,#130);
#129=REPRESENTATION('material name',(#131),#228);
#130=REPRESENTATION('density',(#126),#228);
#131=DESCRIPTIVE_REPRESENTATION_ITEM('G\X\E9n\X\E9rique','G\X\E9n\X\E9
rique');
#132=PROPERTY_DEFINITION('material property','material name',#238);
#133=PROPERTY_DEFINITION('material property','density of part',#238);
#134=DATE_TIME_ROLE('creation_date');
#135=APPLIED_DATE_AND_TIME_ASSIGNMENT(#136,#134,(#238));
#136=DATE_AND_TIME(#137,#138);
#137=CALENDAR_DATE(2020,15,12);
#138=LOCAL_TIME(0,0,0.,#139);
#139=COORDINATED_UNIVERSAL_TIME_OFFSET(0,0,.BEHIND.);
#140=AXIS2_PLACEMENT_3D('placement',#196,#157,#158);
#141=AXIS2_PLACEMENT_3D('',#197,#159,#160);
#142=AXIS2_PLACEMENT_3D('',#199,#161,#162);
#143=AXIS2_PLACEMENT_3D('',#202,#164,#165);
#144=AXIS2_PLACEMENT_3D('',#203,#166,#167);
#145=AXIS2_PLACEMENT_3D('',#205,#168,#169);
#146=AXIS2_PLACEMENT_3D('',#207,#171,#172);
#147=AXIS2_PLACEMENT_3D('',#209,#173,#174);
#148=AXIS2_PLACEMENT_3D('',#210,#175,#176);
#149=AXIS2_PLACEMENT_3D('',#213,#178,#179);
#150=AXIS2_PLACEMENT_3D('',#214,#180,#181);
#151=AXIS2_PLACEMENT_3D('',#216,#182,#183);
#152=AXIS2_PLACEMENT_3D('',#217,#184,#185);
#153=AXIS2_PLACEMENT_3D('',#219,#186,#187);
#154=AXIS2_PLACEMENT_3D('',#221,#188,#189);
#155=AXIS2_PLACEMENT_3D('',#222,#190,#191);
#156=AXIS2_PLACEMENT_3D('',#224,#193,#194);
#157=DIRECTION('axis',(0.,0.,1.));
#158=DIRECTION('refdir',(1.,0.,0.));
#159=DIRECTION('center_axis',(1.,0.,0.));
#160=DIRECTION('ref_axis',(0.,0.,1.));
#161=DIRECTION('center_axis',(1.,0.,0.));
#162=DIRECTION('ref_axis',(0.,0.,1.));
#163=DIRECTION('',(-0.707106781186546,-8.65956056235495E-17,0.707106781186549));
#164=DIRECTION('center_axis',(-1.,0.,0.));
#165=DIRECTION('ref_axis',(0.,0.,1.));
#166=DIRECTION('center_axis',(-1.,0.,0.));
#167=DIRECTION('ref_axis',(0.,0.,1.));
#168=DIRECTION('center_axis',(1.,0.,0.));
#169=DIRECTION('ref_axis',(0.,0.,1.));
#170=DIRECTION('',(1.,0.,0.));
#171=DIRECTION('center_axis',(-1.,0.,0.));
#172=DIRECTION('ref_axis',(0.,0.,1.));
#173=DIRECTION('center_axis',(-1.,0.,0.));
#174=DIRECTION('ref_axis',(0.,0.,1.));
#175=DIRECTION('center_axis',(-1.,0.,0.));
#176=DIRECTION('ref_axis',(0.,0.,1.));
#177=DIRECTION('',(-0.707106781186546,8.65956056235495E-17,-0.707106781186549));
#178=DIRECTION('center_axis',(-1.,0.,0.));
#179=DIRECTION('ref_axis',(0.,0.,1.));
#180=DIRECTION('center_axis',(-1.,0.,0.));
#181=DIRECTION('ref_axis',(0.,0.,1.));
#182=DIRECTION('center_axis',(-1.,0.,0.));
#183=DIRECTION('ref_axis',(0.,0.,1.));
#184=DIRECTION('center_axis',(-1.,0.,0.));
#185=DIRECTION('ref_axis',(0.,0.,1.));
#186=DIRECTION('center_axis',(1.,0.,0.));
#187=DIRECTION('ref_axis',(0.,0.,1.));
#188=DIRECTION('center_axis',(1.,0.,0.));
#189=DIRECTION('ref_axis',(0.,0.,-1.));
#190=DIRECTION('center_axis',(1.,0.,0.));
#191=DIRECTION('ref_axis',(0.,0.,1.));
#192=DIRECTION('',(-1.,0.,0.));
#193=DIRECTION('center_axis',(1.,0.,0.));
#194=DIRECTION('ref_axis',(0.,0.,-1.));
#195=DIRECTION('',(-1.,0.,0.));
#196=CARTESIAN_POINT('',(0.,0.,0.));
#197=CARTESIAN_POINT('Origin',(-42.25,0.,0.));
#198=CARTESIAN_POINT('',(-42.,1.62265700887024E-15,-13.25));
#199=CARTESIAN_POINT('Origin',(-42.,0.,0.));
#200=CARTESIAN_POINT('',(-42.5,-1.56142466891288E-15,-12.75));
#201=CARTESIAN_POINT('',(-42.25,1.59204083889156E-15,-13.));
#202=CARTESIAN_POINT('Origin',(-42.5,0.,0.));
#203=CARTESIAN_POINT('Origin',(-42.,0.,0.));
#204=CARTESIAN_POINT('',(-52.,1.56142466891288E-15,-12.75));
#205=CARTESIAN_POINT('Origin',(-52.,0.,0.));
#206=CARTESIAN_POINT('',(-42.,-1.56142466891288E-15,-12.75));
#207=CARTESIAN_POINT('Origin',(-42.,0.,0.));
#208=CARTESIAN_POINT('',(-42.,0.,15.));
#209=CARTESIAN_POINT('Origin',(-42.,0.,0.));
#210=CARTESIAN_POINT('Origin',(-52.25,0.,0.));
#211=CARTESIAN_POINT('',(-52.5,-1.62265700887024E-15,-13.25));
#212=CARTESIAN_POINT('',(-52.25,1.59204083889156E-15,-13.));
#213=CARTESIAN_POINT('Origin',(-52.5,0.,0.));
#214=CARTESIAN_POINT('Origin',(-52.5,0.,0.));
#215=CARTESIAN_POINT('',(-52.5,2.20436423846524E-15,-18.));
#216=CARTESIAN_POINT('Origin',(-52.5,0.,0.));
#217=CARTESIAN_POINT('Origin',(-47.5,0.,0.));
#218=CARTESIAN_POINT('',(-47.5,2.20436423846524E-15,-18.));
#219=CARTESIAN_POINT('Origin',(-47.5,0.,0.));
#220=CARTESIAN_POINT('',(-47.5,-1.83697019872103E-15,15.));
#221=CARTESIAN_POINT('Origin',(-47.5,0.,0.));
#222=CARTESIAN_POINT('Origin',(-52.5,0.,0.));
#223=CARTESIAN_POINT('',(-52.5,2.20436423846524E-15,-18.));
#224=CARTESIAN_POINT('Origin',(-46.5,0.,0.));
#225=CARTESIAN_POINT('',(-46.5,-1.83697019872103E-15,15.));
#226=UNCERTAINTY_MEASURE_WITH_UNIT(LENGTH_MEASURE(0.01),#230,
'DISTANCE_ACCURACY_VALUE',
'Maximum model space distance between geometric entities at asserted c
onnectivities');
#227=UNCERTAINTY_MEASURE_WITH_UNIT(LENGTH_MEASURE(0.01),#230,
'DISTANCE_ACCURACY_VALUE',
'Maximum model space distance between geometric entities at asserted c
onnectivities');
#228=(
GEOMETRIC_REPRESENTATION_CONTEXT(3)
GLOBAL_UNCERTAINTY_ASSIGNED_CONTEXT((#226))
GLOBAL_UNIT_ASSIGNED_CONTEXT((#230,#232,#233))
REPRESENTATION_CONTEXT('','3D')
);
#229=(
GEOMETRIC_REPRESENTATION_CONTEXT(3)
GLOBAL_UNCERTAINTY_ASSIGNED_CONTEXT((#227))
GLOBAL_UNIT_ASSIGNED_CONTEXT((#230,#232,#233))
REPRESENTATION_CONTEXT('','3D')
);
#230=(
LENGTH_UNIT()
NAMED_UNIT(*)
SI_UNIT(.MILLI.,.METRE.)
);
#231=(
LENGTH_UNIT()
NAMED_UNIT(*)
SI_UNIT(.CENTI.,.METRE.)
);
#232=(
NAMED_UNIT(*)
PLANE_ANGLE_UNIT()
SI_UNIT($,.RADIAN.)
);
#233=(
NAMED_UNIT(*)
SI_UNIT($,.STERADIAN.)
SOLID_ANGLE_UNIT()
);
#234=SHAPE_DEFINITION_REPRESENTATION(#235,#236);
#235=PRODUCT_DEFINITION_SHAPE('',$,#238);
#236=SHAPE_REPRESENTATION('',(#140),#228);
#237=PRODUCT_DEFINITION_CONTEXT('part definition',#242,'design');
#238=PRODUCT_DEFINITION('22051-07','20005C-Entretoise roulement',#239,#237);
#239=PRODUCT_DEFINITION_FORMATION('ANY',$,#244);
#240=PRODUCT_RELATED_PRODUCT_CATEGORY('20005C-Entretoise roulement',
'20005C-Entretoise roulement',(#244));
#241=APPLICATION_PROTOCOL_DEFINITION('international standard',
'automotive_design',2009,#242);
#242=APPLICATION_CONTEXT(
'Core Data for Automotive Mechanical Design Process');
#243=PRODUCT_CONTEXT('part definition',#242,'mechanical');
#244=PRODUCT('22051-07','20005C-Entretoise roulement',$,(#243));
#245=PRESENTATION_STYLE_ASSIGNMENT((#246));
#246=SURFACE_STYLE_USAGE(.BOTH.,#249);
#247=SURFACE_STYLE_RENDERING_WITH_PROPERTIES($,#253,(#248));
#248=SURFACE_STYLE_TRANSPARENT(0.);
#249=SURFACE_SIDE_STYLE('',(#250,#247));
#250=SURFACE_STYLE_FILL_AREA(#251);
#251=FILL_AREA_STYLE('',(#252));
#252=FILL_AREA_STYLE_COLOUR('',#253);
#253=COLOUR_RGB('',0.513725490196078,0.345098039215686,0.772549019607843);
ENDSEC;
END-ISO-10303-21;
