ISO-10303-21;
HEADER;
/* Generated by software containing ST-Developer
 * from STEP Tools, Inc. (www.steptools.com) 
 */

FILE_DESCRIPTION(
/* description */ (''),
/* implementation_level */ '2;1');

FILE_NAME(
/* name */ 'Composant14.step',
/* time_stamp */ '2023-02-05T20:34:38+01:00',
/* author */ (''),
/* organization */ (''),
/* preprocessor_version */ 'ST-DEVELOPER v19.2',
/* originating_system */ 'Autodesk Translation Framework v11.17.0.187',

/* authorisation */ '');

FILE_SCHEMA (('AUTOMOTIVE_DESIGN { 1 0 10303 214 3 1 1 }'));
ENDSEC;

DATA;
#10=MECHANICAL_DESIGN_GEOMETRIC_PRESENTATION_REPRESENTATION('',(#13),#445);
#11=SHAPE_REPRESENTATION_RELATIONSHIP('SRR','None',#452,#12);
#12=ADVANCED_BREP_SHAPE_REPRESENTATION('',(#14),#444);
#13=STYLED_ITEM('',(#461),#14);
#14=MANIFOLD_SOLID_BREP('Corps1',#243);
#15=CONICAL_SURFACE('',#274,22.6294711054818,0.785398163397427);
#16=CONICAL_SURFACE('',#278,17.5055598085349,0.209439510239572);
#17=CONICAL_SURFACE('',#282,20.6150970783059,0.174532925199423);
#18=FACE_BOUND('',#54,.T.);
#19=FACE_BOUND('',#57,.T.);
#20=FACE_BOUND('',#60,.T.);
#21=FACE_BOUND('',#63,.T.);
#22=FACE_BOUND('',#68,.T.);
#23=FACE_BOUND('',#71,.T.);
#24=FACE_BOUND('',#74,.T.);
#25=FACE_BOUND('',#77,.T.);
#26=PLANE('',#260);
#27=PLANE('',#264);
#28=PLANE('',#268);
#29=PLANE('',#272);
#30=PLANE('',#280);
#31=PLANE('',#284);
#32=PLANE('',#288);
#33=PLANE('',#292);
#34=FACE_OUTER_BOUND('',#52,.T.);
#35=FACE_OUTER_BOUND('',#53,.T.);
#36=FACE_OUTER_BOUND('',#55,.T.);
#37=FACE_OUTER_BOUND('',#56,.T.);
#38=FACE_OUTER_BOUND('',#58,.T.);
#39=FACE_OUTER_BOUND('',#59,.T.);
#40=FACE_OUTER_BOUND('',#61,.T.);
#41=FACE_OUTER_BOUND('',#62,.T.);
#42=FACE_OUTER_BOUND('',#64,.T.);
#43=FACE_OUTER_BOUND('',#65,.T.);
#44=FACE_OUTER_BOUND('',#66,.T.);
#45=FACE_OUTER_BOUND('',#67,.T.);
#46=FACE_OUTER_BOUND('',#69,.T.);
#47=FACE_OUTER_BOUND('',#70,.T.);
#48=FACE_OUTER_BOUND('',#72,.T.);
#49=FACE_OUTER_BOUND('',#73,.T.);
#50=FACE_OUTER_BOUND('',#75,.T.);
#51=FACE_OUTER_BOUND('',#76,.T.);
#52=EDGE_LOOP('',(#162,#163,#164,#165));
#53=EDGE_LOOP('',(#166));
#54=EDGE_LOOP('',(#167));
#55=EDGE_LOOP('',(#168,#169,#170,#171));
#56=EDGE_LOOP('',(#172));
#57=EDGE_LOOP('',(#173));
#58=EDGE_LOOP('',(#174,#175,#176,#177));
#59=EDGE_LOOP('',(#178));
#60=EDGE_LOOP('',(#179));
#61=EDGE_LOOP('',(#180,#181,#182,#183));
#62=EDGE_LOOP('',(#184));
#63=EDGE_LOOP('',(#185));
#64=EDGE_LOOP('',(#186,#187,#188,#189));
#65=EDGE_LOOP('',(#190,#191,#192,#193));
#66=EDGE_LOOP('',(#194,#195,#196,#197));
#67=EDGE_LOOP('',(#198));
#68=EDGE_LOOP('',(#199));
#69=EDGE_LOOP('',(#200,#201,#202,#203));
#70=EDGE_LOOP('',(#204));
#71=EDGE_LOOP('',(#205));
#72=EDGE_LOOP('',(#206,#207,#208,#209));
#73=EDGE_LOOP('',(#210));
#74=EDGE_LOOP('',(#211));
#75=EDGE_LOOP('',(#212,#213,#214,#215));
#76=EDGE_LOOP('',(#216));
#77=EDGE_LOOP('',(#217));
#78=LINE('',#382,#88);
#79=LINE('',#390,#89);
#80=LINE('',#397,#90);
#81=LINE('',#404,#91);
#82=LINE('',#410,#92);
#83=LINE('',#414,#93);
#84=LINE('',#418,#94);
#85=LINE('',#426,#95);
#86=LINE('',#433,#96);
#87=LINE('',#440,#97);
#88=VECTOR('',#299,35.1630164822836);
#89=VECTOR('',#310,33.0130164822838);
#90=VECTOR('',#319,35.1630164822838);
#91=VECTOR('',#328,33.4780164822782);
#92=VECTOR('',#335,22.6294711054818);
#93=VECTOR('',#340,13.0509257286793);
#94=VECTOR('',#345,17.5055598085349);
#95=VECTOR('',#356,20.6150970783059);
#96=VECTOR('',#365,35.1629164822832);
#97=VECTOR('',#374,33.0130164822839);
#98=CIRCLE('',#258,35.163016482284);
#99=CIRCLE('',#259,35.1630164822832);
#100=CIRCLE('',#261,33.0130164822837);
#101=CIRCLE('',#263,33.0130164822839);
#102=CIRCLE('',#265,35.1630164822839);
#103=CIRCLE('',#267,35.1630164822838);
#104=CIRCLE('',#269,33.4780164822725);
#105=CIRCLE('',#271,33.4780164822839);
#106=CIRCLE('',#273,32.2080164822839);
#107=CIRCLE('',#275,13.0509257286797);
#108=CIRCLE('',#277,13.0509257286789);
#109=CIRCLE('',#279,21.9601938883909);
#110=CIRCLE('',#281,23.2301938883909);
#111=CIRCLE('',#283,18.0000002682209);
#112=CIRCLE('',#285,35.1629164822832);
#113=CIRCLE('',#287,35.1629164822832);
#114=CIRCLE('',#289,33.0130164822838);
#115=CIRCLE('',#291,33.013016482284);
#116=VERTEX_POINT('',#379);
#117=VERTEX_POINT('',#381);
#118=VERTEX_POINT('',#385);
#119=VERTEX_POINT('',#388);
#120=VERTEX_POINT('',#392);
#121=VERTEX_POINT('',#395);
#122=VERTEX_POINT('',#399);
#123=VERTEX_POINT('',#402);
#124=VERTEX_POINT('',#406);
#125=VERTEX_POINT('',#409);
#126=VERTEX_POINT('',#413);
#127=VERTEX_POINT('',#417);
#128=VERTEX_POINT('',#421);
#129=VERTEX_POINT('',#424);
#130=VERTEX_POINT('',#428);
#131=VERTEX_POINT('',#431);
#132=VERTEX_POINT('',#435);
#133=VERTEX_POINT('',#438);
#134=EDGE_CURVE('',#116,#116,#98,.T.);
#135=EDGE_CURVE('',#116,#117,#78,.T.);
#136=EDGE_CURVE('',#117,#117,#99,.T.);
#137=EDGE_CURVE('',#118,#118,#100,.T.);
#138=EDGE_CURVE('',#119,#119,#101,.T.);
#139=EDGE_CURVE('',#119,#118,#79,.T.);
#140=EDGE_CURVE('',#120,#120,#102,.T.);
#141=EDGE_CURVE('',#121,#121,#103,.T.);
#142=EDGE_CURVE('',#121,#120,#80,.T.);
#143=EDGE_CURVE('',#122,#122,#104,.T.);
#144=EDGE_CURVE('',#123,#123,#105,.T.);
#145=EDGE_CURVE('',#123,#122,#81,.T.);
#146=EDGE_CURVE('',#124,#124,#106,.T.);
#147=EDGE_CURVE('',#124,#125,#82,.T.);
#148=EDGE_CURVE('',#125,#125,#107,.T.);
#149=EDGE_CURVE('',#125,#126,#83,.T.);
#150=EDGE_CURVE('',#126,#126,#108,.T.);
#151=EDGE_CURVE('',#126,#127,#84,.T.);
#152=EDGE_CURVE('',#127,#127,#109,.T.);
#153=EDGE_CURVE('',#128,#128,#110,.T.);
#154=EDGE_CURVE('',#129,#129,#111,.T.);
#155=EDGE_CURVE('',#129,#128,#85,.T.);
#156=EDGE_CURVE('',#130,#130,#112,.T.);
#157=EDGE_CURVE('',#131,#131,#113,.T.);
#158=EDGE_CURVE('',#131,#130,#86,.T.);
#159=EDGE_CURVE('',#132,#132,#114,.T.);
#160=EDGE_CURVE('',#133,#133,#115,.T.);
#161=EDGE_CURVE('',#133,#132,#87,.T.);
#162=ORIENTED_EDGE('',*,*,#134,.F.);
#163=ORIENTED_EDGE('',*,*,#135,.T.);
#164=ORIENTED_EDGE('',*,*,#136,.T.);
#165=ORIENTED_EDGE('',*,*,#135,.F.);
#166=ORIENTED_EDGE('',*,*,#134,.T.);
#167=ORIENTED_EDGE('',*,*,#137,.F.);
#168=ORIENTED_EDGE('',*,*,#138,.F.);
#169=ORIENTED_EDGE('',*,*,#139,.T.);
#170=ORIENTED_EDGE('',*,*,#137,.T.);
#171=ORIENTED_EDGE('',*,*,#139,.F.);
#172=ORIENTED_EDGE('',*,*,#140,.F.);
#173=ORIENTED_EDGE('',*,*,#138,.T.);
#174=ORIENTED_EDGE('',*,*,#141,.F.);
#175=ORIENTED_EDGE('',*,*,#142,.T.);
#176=ORIENTED_EDGE('',*,*,#140,.T.);
#177=ORIENTED_EDGE('',*,*,#142,.F.);
#178=ORIENTED_EDGE('',*,*,#141,.T.);
#179=ORIENTED_EDGE('',*,*,#143,.F.);
#180=ORIENTED_EDGE('',*,*,#144,.F.);
#181=ORIENTED_EDGE('',*,*,#145,.T.);
#182=ORIENTED_EDGE('',*,*,#143,.T.);
#183=ORIENTED_EDGE('',*,*,#145,.F.);
#184=ORIENTED_EDGE('',*,*,#144,.T.);
#185=ORIENTED_EDGE('',*,*,#146,.F.);
#186=ORIENTED_EDGE('',*,*,#146,.T.);
#187=ORIENTED_EDGE('',*,*,#147,.T.);
#188=ORIENTED_EDGE('',*,*,#148,.F.);
#189=ORIENTED_EDGE('',*,*,#147,.F.);
#190=ORIENTED_EDGE('',*,*,#148,.T.);
#191=ORIENTED_EDGE('',*,*,#149,.T.);
#192=ORIENTED_EDGE('',*,*,#150,.F.);
#193=ORIENTED_EDGE('',*,*,#149,.F.);
#194=ORIENTED_EDGE('',*,*,#150,.T.);
#195=ORIENTED_EDGE('',*,*,#151,.T.);
#196=ORIENTED_EDGE('',*,*,#152,.F.);
#197=ORIENTED_EDGE('',*,*,#151,.F.);
#198=ORIENTED_EDGE('',*,*,#153,.F.);
#199=ORIENTED_EDGE('',*,*,#152,.T.);
#200=ORIENTED_EDGE('',*,*,#154,.F.);
#201=ORIENTED_EDGE('',*,*,#155,.T.);
#202=ORIENTED_EDGE('',*,*,#153,.T.);
#203=ORIENTED_EDGE('',*,*,#155,.F.);
#204=ORIENTED_EDGE('',*,*,#156,.F.);
#205=ORIENTED_EDGE('',*,*,#154,.T.);
#206=ORIENTED_EDGE('',*,*,#157,.F.);
#207=ORIENTED_EDGE('',*,*,#158,.T.);
#208=ORIENTED_EDGE('',*,*,#156,.T.);
#209=ORIENTED_EDGE('',*,*,#158,.F.);
#210=ORIENTED_EDGE('',*,*,#157,.T.);
#211=ORIENTED_EDGE('',*,*,#159,.F.);
#212=ORIENTED_EDGE('',*,*,#160,.F.);
#213=ORIENTED_EDGE('',*,*,#161,.T.);
#214=ORIENTED_EDGE('',*,*,#159,.T.);
#215=ORIENTED_EDGE('',*,*,#161,.F.);
#216=ORIENTED_EDGE('',*,*,#136,.F.);
#217=ORIENTED_EDGE('',*,*,#160,.T.);
#218=CYLINDRICAL_SURFACE('',#257,35.1630164822836);
#219=CYLINDRICAL_SURFACE('',#262,33.0130164822838);
#220=CYLINDRICAL_SURFACE('',#266,35.1630164822838);
#221=CYLINDRICAL_SURFACE('',#270,33.4780164822782);
#222=CYLINDRICAL_SURFACE('',#276,13.0509257286793);
#223=CYLINDRICAL_SURFACE('',#286,35.1629164822832);
#224=CYLINDRICAL_SURFACE('',#290,33.0130164822839);
#225=ADVANCED_FACE('',(#34),#218,.T.);
#226=ADVANCED_FACE('',(#35,#18),#26,.T.);
#227=ADVANCED_FACE('',(#36),#219,.T.);
#228=ADVANCED_FACE('',(#37,#19),#27,.T.);
#229=ADVANCED_FACE('',(#38),#220,.T.);
#230=ADVANCED_FACE('',(#39,#20),#28,.T.);
#231=ADVANCED_FACE('',(#40),#221,.T.);
#232=ADVANCED_FACE('',(#41,#21),#29,.T.);
#233=ADVANCED_FACE('',(#42),#15,.F.);
#234=ADVANCED_FACE('',(#43),#222,.F.);
#235=ADVANCED_FACE('',(#44),#16,.F.);
#236=ADVANCED_FACE('',(#45,#22),#30,.T.);
#237=ADVANCED_FACE('',(#46),#17,.T.);
#238=ADVANCED_FACE('',(#47,#23),#31,.T.);
#239=ADVANCED_FACE('',(#48),#223,.T.);
#240=ADVANCED_FACE('',(#49,#24),#32,.T.);
#241=ADVANCED_FACE('',(#50),#224,.T.);
#242=ADVANCED_FACE('',(#51,#25),#33,.T.);
#243=CLOSED_SHELL('',(#225,#226,#227,#228,#229,#230,#231,#232,#233,#234,
#235,#236,#237,#238,#239,#240,#241,#242));
#244=DERIVED_UNIT_ELEMENT(#246,1.);
#245=DERIVED_UNIT_ELEMENT(#447,-3.);
#246=(
MASS_UNIT()
NAMED_UNIT(*)
SI_UNIT(.KILO.,.GRAM.)
);
#247=DERIVED_UNIT((#244,#245));
#248=MEASURE_REPRESENTATION_ITEM('density measure',
POSITIVE_RATIO_MEASURE(8000.),#247);
#249=PROPERTY_DEFINITION_REPRESENTATION(#254,#251);
#250=PROPERTY_DEFINITION_REPRESENTATION(#255,#252);
#251=REPRESENTATION('material name',(#253),#444);
#252=REPRESENTATION('density',(#248),#444);
#253=DESCRIPTIVE_REPRESENTATION_ITEM('Acier inoxydable',
'Acier inoxydable');
#254=PROPERTY_DEFINITION('material property','material name',#454);
#255=PROPERTY_DEFINITION('material property','density of part',#454);
#256=AXIS2_PLACEMENT_3D('placement',#377,#293,#294);
#257=AXIS2_PLACEMENT_3D('',#378,#295,#296);
#258=AXIS2_PLACEMENT_3D('',#380,#297,#298);
#259=AXIS2_PLACEMENT_3D('',#383,#300,#301);
#260=AXIS2_PLACEMENT_3D('',#384,#302,#303);
#261=AXIS2_PLACEMENT_3D('',#386,#304,#305);
#262=AXIS2_PLACEMENT_3D('',#387,#306,#307);
#263=AXIS2_PLACEMENT_3D('',#389,#308,#309);
#264=AXIS2_PLACEMENT_3D('',#391,#311,#312);
#265=AXIS2_PLACEMENT_3D('',#393,#313,#314);
#266=AXIS2_PLACEMENT_3D('',#394,#315,#316);
#267=AXIS2_PLACEMENT_3D('',#396,#317,#318);
#268=AXIS2_PLACEMENT_3D('',#398,#320,#321);
#269=AXIS2_PLACEMENT_3D('',#400,#322,#323);
#270=AXIS2_PLACEMENT_3D('',#401,#324,#325);
#271=AXIS2_PLACEMENT_3D('',#403,#326,#327);
#272=AXIS2_PLACEMENT_3D('',#405,#329,#330);
#273=AXIS2_PLACEMENT_3D('',#407,#331,#332);
#274=AXIS2_PLACEMENT_3D('',#408,#333,#334);
#275=AXIS2_PLACEMENT_3D('',#411,#336,#337);
#276=AXIS2_PLACEMENT_3D('',#412,#338,#339);
#277=AXIS2_PLACEMENT_3D('',#415,#341,#342);
#278=AXIS2_PLACEMENT_3D('',#416,#343,#344);
#279=AXIS2_PLACEMENT_3D('',#419,#346,#347);
#280=AXIS2_PLACEMENT_3D('',#420,#348,#349);
#281=AXIS2_PLACEMENT_3D('',#422,#350,#351);
#282=AXIS2_PLACEMENT_3D('',#423,#352,#353);
#283=AXIS2_PLACEMENT_3D('',#425,#354,#355);
#284=AXIS2_PLACEMENT_3D('',#427,#357,#358);
#285=AXIS2_PLACEMENT_3D('',#429,#359,#360);
#286=AXIS2_PLACEMENT_3D('',#430,#361,#362);
#287=AXIS2_PLACEMENT_3D('',#432,#363,#364);
#288=AXIS2_PLACEMENT_3D('',#434,#366,#367);
#289=AXIS2_PLACEMENT_3D('',#436,#368,#369);
#290=AXIS2_PLACEMENT_3D('',#437,#370,#371);
#291=AXIS2_PLACEMENT_3D('',#439,#372,#373);
#292=AXIS2_PLACEMENT_3D('',#441,#375,#376);
#293=DIRECTION('axis',(0.,0.,1.));
#294=DIRECTION('refdir',(1.,0.,0.));
#295=DIRECTION('center_axis',(1.,0.,0.));
#296=DIRECTION('ref_axis',(0.,1.,0.));
#297=DIRECTION('center_axis',(1.,0.,0.));
#298=DIRECTION('ref_axis',(0.,0.,-1.));
#299=DIRECTION('',(-1.,0.,0.));
#300=DIRECTION('center_axis',(1.,0.,0.));
#301=DIRECTION('ref_axis',(0.,0.,-1.));
#302=DIRECTION('center_axis',(1.,0.,0.));
#303=DIRECTION('ref_axis',(0.,0.,-1.));
#304=DIRECTION('center_axis',(1.,0.,0.));
#305=DIRECTION('ref_axis',(0.,0.,-1.));
#306=DIRECTION('center_axis',(1.,0.,0.));
#307=DIRECTION('ref_axis',(0.,1.,0.));
#308=DIRECTION('center_axis',(1.,0.,0.));
#309=DIRECTION('ref_axis',(0.,0.,-1.));
#310=DIRECTION('',(-1.,0.,0.));
#311=DIRECTION('center_axis',(-1.,0.,0.));
#312=DIRECTION('ref_axis',(0.,0.,1.));
#313=DIRECTION('center_axis',(1.,0.,0.));
#314=DIRECTION('ref_axis',(0.,0.,-1.));
#315=DIRECTION('center_axis',(1.,0.,0.));
#316=DIRECTION('ref_axis',(0.,1.,0.));
#317=DIRECTION('center_axis',(1.,0.,0.));
#318=DIRECTION('ref_axis',(0.,0.,-1.));
#319=DIRECTION('',(-1.,0.,0.));
#320=DIRECTION('center_axis',(1.,0.,0.));
#321=DIRECTION('ref_axis',(0.,0.,-1.));
#322=DIRECTION('center_axis',(1.,0.,0.));
#323=DIRECTION('ref_axis',(0.,0.,-1.));
#324=DIRECTION('center_axis',(1.,0.,0.));
#325=DIRECTION('ref_axis',(0.,1.,0.));
#326=DIRECTION('center_axis',(1.,0.,0.));
#327=DIRECTION('ref_axis',(0.,0.,-1.));
#328=DIRECTION('',(-1.,0.,0.));
#329=DIRECTION('center_axis',(1.,0.,0.));
#330=DIRECTION('ref_axis',(0.,0.,-1.));
#331=DIRECTION('center_axis',(1.,0.,0.));
#332=DIRECTION('ref_axis',(0.,0.,-1.));
#333=DIRECTION('center_axis',(1.,0.,0.));
#334=DIRECTION('ref_axis',(0.,1.,0.));
#335=DIRECTION('',(-0.707106781186563,0.707106781186532,8.65956056235475E-17));
#336=DIRECTION('center_axis',(1.,0.,0.));
#337=DIRECTION('ref_axis',(0.,0.,-1.));
#338=DIRECTION('center_axis',(1.,0.,0.));
#339=DIRECTION('ref_axis',(0.,1.,0.));
#340=DIRECTION('',(-1.,0.,0.));
#341=DIRECTION('center_axis',(1.,0.,0.));
#342=DIRECTION('ref_axis',(0.,0.,-1.));
#343=DIRECTION('center_axis',(-1.,0.,0.));
#344=DIRECTION('ref_axis',(0.,1.,0.));
#345=DIRECTION('',(-0.978147600733753,-0.207911690818007,-2.54618386665586E-17));
#346=DIRECTION('center_axis',(1.,0.,0.));
#347=DIRECTION('ref_axis',(0.,0.,-1.));
#348=DIRECTION('center_axis',(-1.,0.,0.));
#349=DIRECTION('ref_axis',(0.,0.,1.));
#350=DIRECTION('center_axis',(1.,0.,0.));
#351=DIRECTION('ref_axis',(0.,0.,-1.));
#352=DIRECTION('center_axis',(-1.,0.,0.));
#353=DIRECTION('ref_axis',(0.,1.,0.));
#354=DIRECTION('center_axis',(1.,0.,0.));
#355=DIRECTION('ref_axis',(0.,0.,-1.));
#356=DIRECTION('',(-0.98480775301221,-0.17364817766692,-2.12657684957565E-17));
#357=DIRECTION('center_axis',(-1.,0.,0.));
#358=DIRECTION('ref_axis',(0.,0.,1.));
#359=DIRECTION('center_axis',(1.,0.,0.));
#360=DIRECTION('ref_axis',(0.,0.,-1.));
#361=DIRECTION('center_axis',(1.,0.,0.));
#362=DIRECTION('ref_axis',(0.,1.,0.));
#363=DIRECTION('center_axis',(1.,0.,0.));
#364=DIRECTION('ref_axis',(0.,0.,-1.));
#365=DIRECTION('',(-1.,0.,0.));
#366=DIRECTION('center_axis',(1.,0.,0.));
#367=DIRECTION('ref_axis',(0.,0.,-1.));
#368=DIRECTION('center_axis',(1.,0.,0.));
#369=DIRECTION('ref_axis',(0.,0.,-1.));
#370=DIRECTION('center_axis',(1.,0.,0.));
#371=DIRECTION('ref_axis',(0.,1.,0.));
#372=DIRECTION('center_axis',(1.,0.,0.));
#373=DIRECTION('ref_axis',(0.,0.,-1.));
#374=DIRECTION('',(-1.,0.,0.));
#375=DIRECTION('center_axis',(-1.,0.,0.));
#376=DIRECTION('ref_axis',(0.,0.,1.));
#377=CARTESIAN_POINT('',(0.,0.,0.));
#378=CARTESIAN_POINT('Origin',(15.0699999999961,0.,0.));
#379=CARTESIAN_POINT('',(16.3399999999961,-35.1630164822836,-4.30622755833942E-15));
#380=CARTESIAN_POINT('Origin',(16.3399999999961,0.,0.));
#381=CARTESIAN_POINT('',(13.7999999999961,-35.1630164822836,-4.30622755833942E-15));
#382=CARTESIAN_POINT('',(15.0699999999961,-35.1630164822836,-4.30622755833942E-15));
#383=CARTESIAN_POINT('Origin',(13.7999999999961,0.,0.));
#384=CARTESIAN_POINT('Origin',(16.3399999999961,33.0130164822837,0.));
#385=CARTESIAN_POINT('',(16.3399999999961,-33.0130164822838,-4.04292849652276E-15));
#386=CARTESIAN_POINT('Origin',(16.3399999999961,0.,0.));
#387=CARTESIAN_POINT('Origin',(18.2399999999961,0.,0.));
#388=CARTESIAN_POINT('',(20.1399999999961,-33.0130164822838,-4.04292849652276E-15));
#389=CARTESIAN_POINT('Origin',(20.1399999999961,0.,0.));
#390=CARTESIAN_POINT('',(18.2399999999961,-33.0130164822838,-4.04292849652276E-15));
#391=CARTESIAN_POINT('Origin',(20.139999999996,35.1630164822839,0.));
#392=CARTESIAN_POINT('',(20.139999999996,-35.1630164822838,-4.30622755833945E-15));
#393=CARTESIAN_POINT('Origin',(20.139999999996,0.,0.));
#394=CARTESIAN_POINT('Origin',(21.409999999996,0.,0.));
#395=CARTESIAN_POINT('',(22.679999999996,-35.1630164822838,-4.30622755833945E-15));
#396=CARTESIAN_POINT('Origin',(22.679999999996,0.,0.));
#397=CARTESIAN_POINT('',(21.409999999996,-35.1630164822838,-4.30622755833945E-15));
#398=CARTESIAN_POINT('Origin',(22.6799999999964,33.4780164822725,0.));
#399=CARTESIAN_POINT('',(22.6799999999964,-33.4780164822782,-4.09987457268243E-15));
#400=CARTESIAN_POINT('Origin',(22.6799999999964,0.,0.));
#401=CARTESIAN_POINT('Origin',(27.6799999999963,0.,0.));
#402=CARTESIAN_POINT('',(32.6799999999962,-33.4780164822782,-4.09987457268243E-15));
#403=CARTESIAN_POINT('Origin',(32.6799999999962,0.,0.));
#404=CARTESIAN_POINT('',(27.6799999999963,-33.4780164822782,-4.09987457268243E-15));
#405=CARTESIAN_POINT('Origin',(32.6799999999993,32.2080164822839,0.));
#406=CARTESIAN_POINT('',(32.6799999999993,-32.2080164822839,-3.94434442919141E-15));
#407=CARTESIAN_POINT('Origin',(32.6799999999993,0.,0.));
#408=CARTESIAN_POINT('Origin',(23.1014546231968,0.,0.));
#409=CARTESIAN_POINT('',(13.5229092463943,-13.0509257286797,-1.59827744195375E-15));
#410=CARTESIAN_POINT('',(23.1014546231968,-22.6294711054818,-2.77131093557258E-15));
#411=CARTESIAN_POINT('Origin',(13.5229092463943,0.,0.));
#412=CARTESIAN_POINT('Origin',(12.8879092463943,0.,0.));
#413=CARTESIAN_POINT('',(12.2529092463943,-13.0509257286793,-1.59827744195369E-15));
#414=CARTESIAN_POINT('',(12.8879092463943,-13.0509257286793,-1.59827744195369E-15));
#415=CARTESIAN_POINT('Origin',(12.2529092463943,0.,0.));
#416=CARTESIAN_POINT('Origin',(-8.70449637237914,0.,0.));
#417=CARTESIAN_POINT('',(-29.6619019911526,-21.9601938883909,-2.68934811540732E-15));
#418=CARTESIAN_POINT('',(-8.70449637237914,-17.5055598085349,-2.14381277868048E-15));
#419=CARTESIAN_POINT('Origin',(-29.6619019911526,0.,0.));
#420=CARTESIAN_POINT('Origin',(-29.6619019911526,23.2301938883909,0.));
#421=CARTESIAN_POINT('',(-29.6619019911526,-23.2301938883909,-2.84487825889904E-15));
#422=CARTESIAN_POINT('Origin',(-29.6619019911526,0.,0.));
#423=CARTESIAN_POINT('Origin',(-14.8309509955763,0.,0.));
#424=CARTESIAN_POINT('',(-2.22044604925031E-15,-18.0000002682209,-2.20436427131282E-15));
#425=CARTESIAN_POINT('Origin',(-2.22044604925031E-15,0.,0.));
#426=CARTESIAN_POINT('',(-14.8309509955763,-20.6150970783059,-2.52462126510593E-15));
#427=CARTESIAN_POINT('Origin',(2.22738494315422E-14,35.1629164822832,0.));
#428=CARTESIAN_POINT('',(2.22044604925031E-14,-35.1629164822832,-4.30621531187139E-15));
#429=CARTESIAN_POINT('Origin',(2.22044604925031E-14,0.,0.));
#430=CARTESIAN_POINT('Origin',(5.00000000000002,0.,0.));
#431=CARTESIAN_POINT('',(10.,-35.1629164822832,-4.30621531187139E-15));
#432=CARTESIAN_POINT('Origin',(10.,0.,0.));
#433=CARTESIAN_POINT('',(5.00000000000002,-35.1629164822832,-4.30621531187139E-15));
#434=CARTESIAN_POINT('Origin',(9.99999999999999,33.0130164822838,0.));
#435=CARTESIAN_POINT('',(9.99999999999999,-33.0130164822839,-4.04292849652278E-15));
#436=CARTESIAN_POINT('Origin',(9.99999999999999,0.,0.));
#437=CARTESIAN_POINT('Origin',(11.9,0.,0.));
#438=CARTESIAN_POINT('',(13.8,-33.0130164822839,-4.04292849652278E-15));
#439=CARTESIAN_POINT('Origin',(13.8,0.,0.));
#440=CARTESIAN_POINT('',(11.9,-33.0130164822839,-4.04292849652278E-15));
#441=CARTESIAN_POINT('Origin',(13.7999999999961,35.1630164822832,0.));
#442=UNCERTAINTY_MEASURE_WITH_UNIT(LENGTH_MEASURE(0.01),#446,
'DISTANCE_ACCURACY_VALUE',
'Maximum model space distance between geometric entities at asserted c
onnectivities');
#443=UNCERTAINTY_MEASURE_WITH_UNIT(LENGTH_MEASURE(0.01),#446,
'DISTANCE_ACCURACY_VALUE',
'Maximum model space distance between geometric entities at asserted c
onnectivities');
#444=(
GEOMETRIC_REPRESENTATION_CONTEXT(3)
GLOBAL_UNCERTAINTY_ASSIGNED_CONTEXT((#442))
GLOBAL_UNIT_ASSIGNED_CONTEXT((#446,#448,#449))
REPRESENTATION_CONTEXT('','3D')
);
#445=(
GEOMETRIC_REPRESENTATION_CONTEXT(3)
GLOBAL_UNCERTAINTY_ASSIGNED_CONTEXT((#443))
GLOBAL_UNIT_ASSIGNED_CONTEXT((#446,#448,#449))
REPRESENTATION_CONTEXT('','3D')
);
#446=(
LENGTH_UNIT()
NAMED_UNIT(*)
SI_UNIT(.MILLI.,.METRE.)
);
#447=(
LENGTH_UNIT()
NAMED_UNIT(*)
SI_UNIT($,.METRE.)
);
#448=(
NAMED_UNIT(*)
PLANE_ANGLE_UNIT()
SI_UNIT($,.RADIAN.)
);
#449=(
NAMED_UNIT(*)
SI_UNIT($,.STERADIAN.)
SOLID_ANGLE_UNIT()
);
#450=SHAPE_DEFINITION_REPRESENTATION(#451,#452);
#451=PRODUCT_DEFINITION_SHAPE('',$,#454);
#452=SHAPE_REPRESENTATION('',(#256),#444);
#453=PRODUCT_DEFINITION_CONTEXT('part definition',#458,'design');
#454=PRODUCT_DEFINITION('FusionComponent','FusionComponent',#455,#453);
#455=PRODUCT_DEFINITION_FORMATION('',$,#460);
#456=PRODUCT_RELATED_PRODUCT_CATEGORY('FusionComponent',
'FusionComponent',(#460));
#457=APPLICATION_PROTOCOL_DEFINITION('international standard',
'automotive_design',2009,#458);
#458=APPLICATION_CONTEXT(
'Core Data for Automotive Mechanical Design Process');
#459=PRODUCT_CONTEXT('part definition',#458,'mechanical');
#460=PRODUCT('FusionComponent','FusionComponent',$,(#459));
#461=PRESENTATION_STYLE_ASSIGNMENT((#462));
#462=SURFACE_STYLE_USAGE(.BOTH.,#463);
#463=SURFACE_SIDE_STYLE('',(#464));
#464=SURFACE_STYLE_FILL_AREA(#465);
#465=FILL_AREA_STYLE('Acier inoxydable - Satin\X\E9',(#466));
#466=FILL_AREA_STYLE_COLOUR('Acier inoxydable - Satin\X\E9',#467);
#467=COLOUR_RGB('Acier inoxydable - Satin\X\E9',0.796078431372549,0.796078431372549,
0.796078431372549);
ENDSEC;
END-ISO-10303-21;
