ISO-10303-21;
HEADER;
/* Generated by software containing ST-Developer
 * from STEP Tools, Inc. (www.steptools.com) 
 */

FILE_DESCRIPTION(
/* description */ (''),
/* implementation_level */ '2;1');

FILE_NAME(
/* name */ 'Tube de safran.stp',
/* time_stamp */ '2023-02-21T11:14:07+01:00',
/* author */ ('snowak'),
/* organization */ (''),
/* preprocessor_version */ 'ST-DEVELOPER v19.2',
/* originating_system */ 'Autodesk Inventor 2023',
/* authorisation */ '');

FILE_SCHEMA (('AUTOMOTIVE_DESIGN { 1 0 10303 214 3 1 1 }'));
ENDSEC;

DATA;
#10=MECHANICAL_DESIGN_GEOMETRIC_PRESENTATION_REPRESENTATION('',(#13),#239);
#11=SHAPE_REPRESENTATION_RELATIONSHIP('SRR','None',#246,#12);
#12=ADVANCED_BREP_SHAPE_REPRESENTATION('',(#14),#238);
#13=STYLED_ITEM('',(#255),#14);
#14=MANIFOLD_SOLID_BREP('Solide2',#123);
#15=FACE_BOUND('',#35,.T.);
#16=FACE_BOUND('',#39,.T.);
#17=FACE_BOUND('',#41,.T.);
#18=PLANE('',#151);
#19=PLANE('',#159);
#20=PLANE('',#160);
#21=CYLINDRICAL_SURFACE('',#149,45.3);
#22=CYLINDRICAL_SURFACE('',#157,51.);
#23=CYLINDRICAL_SURFACE('',#162,57.);
#24=FACE_OUTER_BOUND('',#32,.T.);
#25=FACE_OUTER_BOUND('',#33,.T.);
#26=FACE_OUTER_BOUND('',#34,.T.);
#27=FACE_OUTER_BOUND('',#36,.T.);
#28=FACE_OUTER_BOUND('',#37,.T.);
#29=FACE_OUTER_BOUND('',#38,.T.);
#30=FACE_OUTER_BOUND('',#40,.T.);
#31=FACE_OUTER_BOUND('',#42,.T.);
#32=EDGE_LOOP('',(#85,#86,#87,#88));
#33=EDGE_LOOP('',(#89,#90,#91,#92));
#34=EDGE_LOOP('',(#93));
#35=EDGE_LOOP('',(#94));
#36=EDGE_LOOP('',(#95,#96,#97,#98,#99));
#37=EDGE_LOOP('',(#100,#101,#102,#103,#104));
#38=EDGE_LOOP('',(#105));
#39=EDGE_LOOP('',(#106));
#40=EDGE_LOOP('',(#107));
#41=EDGE_LOOP('',(#108));
#42=EDGE_LOOP('',(#109,#110,#111,#112));
#43=LINE('',#209,#48);
#44=LINE('',#213,#49);
#45=LINE('',#224,#50);
#46=LINE('',#229,#51);
#47=LINE('',#235,#52);
#48=VECTOR('',#169,45.55);
#49=VECTOR('',#174,45.3);
#50=VECTOR('',#187,50.75);
#51=VECTOR('',#194,51.);
#52=VECTOR('',#203,57.);
#53=CIRCLE('',#147,45.8);
#54=CIRCLE('',#148,45.3);
#55=CIRCLE('',#150,45.3);
#56=CIRCLE('',#152,57.);
#57=CIRCLE('',#154,51.);
#58=CIRCLE('',#155,51.);
#59=CIRCLE('',#156,50.5);
#60=CIRCLE('',#158,51.);
#61=CIRCLE('',#161,57.);
#62=VERTEX_POINT('',#206);
#63=VERTEX_POINT('',#208);
#64=VERTEX_POINT('',#212);
#65=VERTEX_POINT('',#216);
#66=VERTEX_POINT('',#219);
#67=VERTEX_POINT('',#220);
#68=VERTEX_POINT('',#223);
#69=VERTEX_POINT('',#227);
#70=VERTEX_POINT('',#232);
#71=EDGE_CURVE('',#62,#62,#53,.T.);
#72=EDGE_CURVE('',#62,#63,#43,.T.);
#73=EDGE_CURVE('',#63,#63,#54,.T.);
#74=EDGE_CURVE('',#63,#64,#44,.T.);
#75=EDGE_CURVE('',#64,#64,#55,.T.);
#76=EDGE_CURVE('',#65,#65,#56,.T.);
#77=EDGE_CURVE('',#66,#67,#57,.T.);
#78=EDGE_CURVE('',#67,#66,#58,.T.);
#79=EDGE_CURVE('',#66,#68,#45,.T.);
#80=EDGE_CURVE('',#68,#68,#59,.T.);
#81=EDGE_CURVE('',#69,#69,#60,.T.);
#82=EDGE_CURVE('',#69,#67,#46,.T.);
#83=EDGE_CURVE('',#70,#70,#61,.T.);
#84=EDGE_CURVE('',#70,#65,#47,.T.);
#85=ORIENTED_EDGE('',*,*,#71,.T.);
#86=ORIENTED_EDGE('',*,*,#72,.T.);
#87=ORIENTED_EDGE('',*,*,#73,.T.);
#88=ORIENTED_EDGE('',*,*,#72,.F.);
#89=ORIENTED_EDGE('',*,*,#73,.F.);
#90=ORIENTED_EDGE('',*,*,#74,.T.);
#91=ORIENTED_EDGE('',*,*,#75,.T.);
#92=ORIENTED_EDGE('',*,*,#74,.F.);
#93=ORIENTED_EDGE('',*,*,#76,.T.);
#94=ORIENTED_EDGE('',*,*,#71,.F.);
#95=ORIENTED_EDGE('',*,*,#77,.T.);
#96=ORIENTED_EDGE('',*,*,#78,.T.);
#97=ORIENTED_EDGE('',*,*,#79,.T.);
#98=ORIENTED_EDGE('',*,*,#80,.T.);
#99=ORIENTED_EDGE('',*,*,#79,.F.);
#100=ORIENTED_EDGE('',*,*,#81,.T.);
#101=ORIENTED_EDGE('',*,*,#82,.T.);
#102=ORIENTED_EDGE('',*,*,#77,.F.);
#103=ORIENTED_EDGE('',*,*,#78,.F.);
#104=ORIENTED_EDGE('',*,*,#82,.F.);
#105=ORIENTED_EDGE('',*,*,#80,.F.);
#106=ORIENTED_EDGE('',*,*,#75,.F.);
#107=ORIENTED_EDGE('',*,*,#83,.T.);
#108=ORIENTED_EDGE('',*,*,#81,.F.);
#109=ORIENTED_EDGE('',*,*,#83,.F.);
#110=ORIENTED_EDGE('',*,*,#84,.T.);
#111=ORIENTED_EDGE('',*,*,#76,.F.);
#112=ORIENTED_EDGE('',*,*,#84,.F.);
#113=CONICAL_SURFACE('',#146,45.55,0.785398163397439);
#114=CONICAL_SURFACE('',#153,50.75,0.785398163397447);
#115=ADVANCED_FACE('',(#24),#113,.F.);
#116=ADVANCED_FACE('',(#25),#21,.F.);
#117=ADVANCED_FACE('',(#26,#15),#18,.T.);
#118=ADVANCED_FACE('',(#27),#114,.T.);
#119=ADVANCED_FACE('',(#28),#22,.T.);
#120=ADVANCED_FACE('',(#29,#16),#19,.F.);
#121=ADVANCED_FACE('',(#30,#17),#20,.F.);
#122=ADVANCED_FACE('',(#31),#23,.T.);
#123=CLOSED_SHELL('',(#115,#116,#117,#118,#119,#120,#121,#122));
#124=DERIVED_UNIT_ELEMENT(#127,1.);
#125=DERIVED_UNIT_ELEMENT(#241,-3.);
#126=DIMENSIONAL_EXPONENTS(0.,1.,0.,0.,0.,0.,0.);
#127=(
CONVERSION_BASED_UNIT('gram',#129)
MASS_UNIT()
NAMED_UNIT(#126)
);
#128=(
MASS_UNIT()
NAMED_UNIT(*)
SI_UNIT(.KILO.,.GRAM.)
);
#129=MASS_MEASURE_WITH_UNIT(MASS_MEASURE(0.001),#128);
#130=DERIVED_UNIT((#124,#125));
#131=MEASURE_REPRESENTATION_ITEM('density measure',
POSITIVE_RATIO_MEASURE(1.),#130);
#132=PROPERTY_DEFINITION_REPRESENTATION(#137,#134);
#133=PROPERTY_DEFINITION_REPRESENTATION(#138,#135);
#134=REPRESENTATION('material name',(#136),#238);
#135=REPRESENTATION('density',(#131),#238);
#136=DESCRIPTIVE_REPRESENTATION_ITEM('G\X\E9n\X\E9rique','G\X\E9n\X\E9
rique');
#137=PROPERTY_DEFINITION('material property','material name',#248);
#138=PROPERTY_DEFINITION('material property','density of part',#248);
#139=DATE_TIME_ROLE('creation_date');
#140=APPLIED_DATE_AND_TIME_ASSIGNMENT(#141,#139,(#248));
#141=DATE_AND_TIME(#142,#143);
#142=CALENDAR_DATE(2022,28,11);
#143=LOCAL_TIME(0,0,0.,#144);
#144=COORDINATED_UNIVERSAL_TIME_OFFSET(0,0,.BEHIND.);
#145=AXIS2_PLACEMENT_3D('',#204,#163,#164);
#146=AXIS2_PLACEMENT_3D('',#205,#165,#166);
#147=AXIS2_PLACEMENT_3D('',#207,#167,#168);
#148=AXIS2_PLACEMENT_3D('',#210,#170,#171);
#149=AXIS2_PLACEMENT_3D('',#211,#172,#173);
#150=AXIS2_PLACEMENT_3D('',#214,#175,#176);
#151=AXIS2_PLACEMENT_3D('',#215,#177,#178);
#152=AXIS2_PLACEMENT_3D('',#217,#179,#180);
#153=AXIS2_PLACEMENT_3D('',#218,#181,#182);
#154=AXIS2_PLACEMENT_3D('',#221,#183,#184);
#155=AXIS2_PLACEMENT_3D('',#222,#185,#186);
#156=AXIS2_PLACEMENT_3D('',#225,#188,#189);
#157=AXIS2_PLACEMENT_3D('',#226,#190,#191);
#158=AXIS2_PLACEMENT_3D('',#228,#192,#193);
#159=AXIS2_PLACEMENT_3D('',#230,#195,#196);
#160=AXIS2_PLACEMENT_3D('',#231,#197,#198);
#161=AXIS2_PLACEMENT_3D('',#233,#199,#200);
#162=AXIS2_PLACEMENT_3D('',#234,#201,#202);
#163=DIRECTION('axis',(0.,0.,1.));
#164=DIRECTION('refdir',(1.,0.,0.));
#165=DIRECTION('center_axis',(0.,0.,1.));
#166=DIRECTION('ref_axis',(-1.,0.,0.));
#167=DIRECTION('center_axis',(0.,0.,1.));
#168=DIRECTION('ref_axis',(-1.,0.,0.));
#169=DIRECTION('',(-0.707106781186541,-8.65956056235486E-17,-0.707106781186554));
#170=DIRECTION('center_axis',(0.,0.,-1.));
#171=DIRECTION('ref_axis',(-1.,0.,0.));
#172=DIRECTION('center_axis',(0.,0.,1.));
#173=DIRECTION('ref_axis',(-1.,0.,0.));
#174=DIRECTION('',(0.,0.,-1.));
#175=DIRECTION('center_axis',(0.,0.,-1.));
#176=DIRECTION('ref_axis',(-1.,0.,0.));
#177=DIRECTION('center_axis',(0.,0.,1.));
#178=DIRECTION('ref_axis',(1.,0.,0.));
#179=DIRECTION('center_axis',(0.,0.,1.));
#180=DIRECTION('ref_axis',(1.,0.,0.));
#181=DIRECTION('center_axis',(0.,0.,1.));
#182=DIRECTION('ref_axis',(-1.,0.,0.));
#183=DIRECTION('center_axis',(0.,0.,-1.));
#184=DIRECTION('ref_axis',(-1.,0.,0.));
#185=DIRECTION('center_axis',(0.,0.,-1.));
#186=DIRECTION('ref_axis',(-1.,0.,0.));
#187=DIRECTION('',(-0.707106781186546,-8.65956056235492E-17,-0.707106781186549));
#188=DIRECTION('center_axis',(0.,0.,1.));
#189=DIRECTION('ref_axis',(-1.,0.,0.));
#190=DIRECTION('center_axis',(0.,0.,1.));
#191=DIRECTION('ref_axis',(1.,0.,0.));
#192=DIRECTION('center_axis',(0.,0.,-1.));
#193=DIRECTION('ref_axis',(1.,0.,0.));
#194=DIRECTION('',(0.,0.,-1.));
#195=DIRECTION('center_axis',(0.,0.,1.));
#196=DIRECTION('ref_axis',(1.,0.,0.));
#197=DIRECTION('center_axis',(0.,0.,1.));
#198=DIRECTION('ref_axis',(1.,0.,0.));
#199=DIRECTION('center_axis',(0.,0.,-1.));
#200=DIRECTION('ref_axis',(1.,0.,0.));
#201=DIRECTION('center_axis',(0.,0.,-1.));
#202=DIRECTION('ref_axis',(1.,0.,0.));
#203=DIRECTION('',(0.,0.,1.));
#204=CARTESIAN_POINT('',(0.,0.,0.));
#205=CARTESIAN_POINT('Origin',(0.,0.,114.75));
#206=CARTESIAN_POINT('',(45.8,5.60888234009488E-15,115.));
#207=CARTESIAN_POINT('Origin',(0.,0.,115.));
#208=CARTESIAN_POINT('',(45.3,-5.54765000013751E-15,114.5));
#209=CARTESIAN_POINT('',(45.55,5.57826617011619E-15,114.75));
#210=CARTESIAN_POINT('Origin',(0.,0.,114.5));
#211=CARTESIAN_POINT('Origin',(0.,0.,0.));
#212=CARTESIAN_POINT('',(45.3,5.54765000013751E-15,0.));
#213=CARTESIAN_POINT('',(45.3,5.54765000013751E-15,0.));
#214=CARTESIAN_POINT('Origin',(0.,0.,0.));
#215=CARTESIAN_POINT('Origin',(0.,0.,115.));
#216=CARTESIAN_POINT('',(-57.,6.98048675513991E-15,115.));
#217=CARTESIAN_POINT('Origin',(0.,0.,115.));
#218=CARTESIAN_POINT('Origin',(0.,0.,0.25));
#219=CARTESIAN_POINT('',(51.,-6.2456986756515E-15,0.5));
#220=CARTESIAN_POINT('',(-51.,-6.2456986756515E-15,0.5));
#221=CARTESIAN_POINT('Origin',(0.,0.,0.5));
#222=CARTESIAN_POINT('Origin',(0.,0.,0.5));
#223=CARTESIAN_POINT('',(50.5,6.18446633569414E-15,0.));
#224=CARTESIAN_POINT('',(50.75,6.21508250567282E-15,0.25));
#225=CARTESIAN_POINT('Origin',(0.,0.,0.));
#226=CARTESIAN_POINT('Origin',(0.,0.,0.));
#227=CARTESIAN_POINT('',(-51.,6.2456986756515E-15,109.5));
#228=CARTESIAN_POINT('Origin',(0.,0.,109.5));
#229=CARTESIAN_POINT('',(-51.,-6.2456986756515E-15,0.));
#230=CARTESIAN_POINT('Origin',(0.,0.,0.));
#231=CARTESIAN_POINT('Origin',(0.,0.,109.5));
#232=CARTESIAN_POINT('',(-57.,6.98048675513991E-15,109.5));
#233=CARTESIAN_POINT('Origin',(0.,0.,109.5));
#234=CARTESIAN_POINT('Origin',(0.,0.,115.));
#235=CARTESIAN_POINT('',(-57.,6.98048675513991E-15,115.));
#236=UNCERTAINTY_MEASURE_WITH_UNIT(LENGTH_MEASURE(0.01),#240,
'DISTANCE_ACCURACY_VALUE',
'Maximum model space distance between geometric entities at asserted c
onnectivities');
#237=UNCERTAINTY_MEASURE_WITH_UNIT(LENGTH_MEASURE(0.01),#240,
'DISTANCE_ACCURACY_VALUE',
'Maximum model space distance between geometric entities at asserted c
onnectivities');
#238=(
GEOMETRIC_REPRESENTATION_CONTEXT(3)
GLOBAL_UNCERTAINTY_ASSIGNED_CONTEXT((#236))
GLOBAL_UNIT_ASSIGNED_CONTEXT((#240,#242,#243))
REPRESENTATION_CONTEXT('','3D')
);
#239=(
GEOMETRIC_REPRESENTATION_CONTEXT(3)
GLOBAL_UNCERTAINTY_ASSIGNED_CONTEXT((#237))
GLOBAL_UNIT_ASSIGNED_CONTEXT((#240,#242,#243))
REPRESENTATION_CONTEXT('','3D')
);
#240=(
LENGTH_UNIT()
NAMED_UNIT(*)
SI_UNIT(.MILLI.,.METRE.)
);
#241=(
LENGTH_UNIT()
NAMED_UNIT(*)
SI_UNIT(.CENTI.,.METRE.)
);
#242=(
NAMED_UNIT(*)
PLANE_ANGLE_UNIT()
SI_UNIT($,.RADIAN.)
);
#243=(
NAMED_UNIT(*)
SI_UNIT($,.STERADIAN.)
SOLID_ANGLE_UNIT()
);
#244=SHAPE_DEFINITION_REPRESENTATION(#245,#246);
#245=PRODUCT_DEFINITION_SHAPE('',$,#248);
#246=SHAPE_REPRESENTATION('',(#145),#238);
#247=PRODUCT_DEFINITION_CONTEXT('part definition',#252,'design');
#248=PRODUCT_DEFINITION('Tube de safran','Tube de safran',#249,#247);
#249=PRODUCT_DEFINITION_FORMATION('',$,#254);
#250=PRODUCT_RELATED_PRODUCT_CATEGORY('Tube de safran','Tube de safran',
(#254));
#251=APPLICATION_PROTOCOL_DEFINITION('international standard',
'automotive_design',2009,#252);
#252=APPLICATION_CONTEXT(
'Core Data for Automotive Mechanical Design Process');
#253=PRODUCT_CONTEXT('part definition',#252,'mechanical');
#254=PRODUCT('Tube de safran','Tube de safran',$,(#253));
#255=PRESENTATION_STYLE_ASSIGNMENT((#256));
#256=SURFACE_STYLE_USAGE(.BOTH.,#259);
#257=SURFACE_STYLE_RENDERING_WITH_PROPERTIES($,#263,(#258));
#258=SURFACE_STYLE_TRANSPARENT(0.);
#259=SURFACE_SIDE_STYLE('',(#260,#257));
#260=SURFACE_STYLE_FILL_AREA(#261);
#261=FILL_AREA_STYLE('',(#262));
#262=FILL_AREA_STYLE_COLOUR('',#263);
#263=COLOUR_RGB('',0.749019607843137,0.749019607843137,0.749019607843137);
ENDSEC;
END-ISO-10303-21;
