ISO-10303-21;
HEADER;
FILE_DESCRIPTION (( 'STEP AP203' ),
    '1' );
FILE_NAME ('tube 25CrMo4.STEP',
    '2023-02-13T07:16:38',
    ( '' ),
    ( '' ),
    'SwSTEP 2.0',
    'SolidWorks 2021',
    '' );
FILE_SCHEMA (( 'CONFIG_CONTROL_DESIGN' ));
ENDSEC;

DATA;
#1 =( LENGTH_UNIT ( ) NAMED_UNIT ( * ) SI_UNIT ( .MILLI., .METRE. ) );
#2 = ORIENTED_EDGE ( 'NONE', *, *, #190, .T. ) ;
#3 = PERSON_AND_ORGANIZATION ( #63, #157 ) ;
#4 = AXIS2_PLACEMENT_3D ( 'NONE', #178, #84, #27 ) ;
#5 = VERTEX_POINT ( 'NONE', #60 ) ;
#6 = CC_DESIGN_APPROVAL ( #120, ( #174 ) ) ;
#7 = ORIENTED_EDGE ( 'NONE', *, *, #164, .T. ) ;
#8 = CARTESIAN_POINT ( 'NONE',  ( 0.000000000000000000, 0.000000000000000000, 75.00000000000000000 ) ) ;
#9 = CARTESIAN_POINT ( 'NONE',  ( 20.00000000000000000, 2.449293598294706513E-15, -75.00000000000000000 ) ) ;
#10 = CIRCLE ( 'NONE', #33, 20.00000000000000000 ) ;
#11 = FACE_OUTER_BOUND ( 'NONE', #151, .T. ) ;
#12 = AXIS2_PLACEMENT_3D ( 'NONE', #209, #61, #83 ) ;
#13 = DIRECTION ( 'NONE',  ( -1.000000000000000000, 0.000000000000000000, 0.000000000000000000 ) ) ;
#14 = CC_DESIGN_PERSON_AND_ORGANIZATION_ASSIGNMENT ( #233, #123, ( #140 ) ) ;
#15 = PRODUCT_DEFINITION_SHAPE ( 'NONE', 'NONE',  #69 ) ;
#16 = LINE ( 'NONE', #55, #82 ) ;
#17 = DATE_AND_TIME ( #248, #20 ) ;
#18 = CIRCLE ( 'NONE', #168, 16.25000000000000000 ) ;
#19 = CC_DESIGN_PERSON_AND_ORGANIZATION_ASSIGNMENT ( #58, #163, ( #140 ) ) ;
#20 = LOCAL_TIME ( 8, 16, 38.00000000000000000, #177 ) ;
#21 = SECURITY_CLASSIFICATION_LEVEL ( 'unclassified' ) ;
#22 = APPROVAL_ROLE ( '' ) ;
#23 = ORIENTED_EDGE ( 'NONE', *, *, #80, .F. ) ;
#24 = DATE_AND_TIME ( #165, #215 ) ;
#25 = ORIENTED_EDGE ( 'NONE', *, *, #214, .T. ) ;
#26 = CLOSED_SHELL ( 'NONE', ( #206, #56, #225, #89, #72, #220 ) ) ;
#27 = DIRECTION ( 'NONE',  ( 1.000000000000000000, 0.000000000000000000, -0.000000000000000000 ) ) ;
#28 = ORIENTED_EDGE ( 'NONE', *, *, #80, .T. ) ;
#29 = AXIS2_PLACEMENT_3D ( 'NONE', #85, #235, #146 ) ;
#30 = CARTESIAN_POINT ( 'NONE',  ( 0.000000000000000000, 0.000000000000000000, 75.00000000000000000 ) ) ;
#31 = DIRECTION ( 'NONE',  ( -1.000000000000000000, 0.000000000000000000, 0.000000000000000000 ) ) ;
#32 = CARTESIAN_POINT ( 'NONE',  ( -16.25000000000000000, 0.000000000000000000, -75.00000000000000000 ) ) ;
#33 = AXIS2_PLACEMENT_3D ( 'NONE', #119, #98, #171 ) ;
#34 = CARTESIAN_POINT ( 'NONE',  ( 0.000000000000000000, 0.000000000000000000, -75.00000000000000000 ) ) ;
#35 =( GEOMETRIC_REPRESENTATION_CONTEXT ( 3 ) GLOBAL_UNCERTAINTY_ASSIGNED_CONTEXT ( ( #230 ) ) GLOBAL_UNIT_ASSIGNED_CONTEXT ( ( #1, #106, #198 ) ) REPRESENTATION_CONTEXT ( 'NONE', 'WORKASPACE' ) );
#36 = CARTESIAN_POINT ( 'NONE',  ( 20.00000000000000000, 2.449293598294706513E-15, 75.00000000000000000 ) ) ;
#37 = CIRCLE ( 'NONE', #204, 20.00000000000000000 ) ;
#38 = EDGE_LOOP ( 'NONE', ( #23, #113 ) ) ;
#39 = EDGE_CURVE ( 'NONE', #87, #169, #54, .T. ) ;
#40 = CALENDAR_DATE ( 2023, 13, 2 ) ;
#41 = EDGE_LOOP ( 'NONE', ( #88, #62, #2, #112 ) ) ;
#42 = APPROVAL_STATUS ( 'not_yet_approved' ) ;
#43 = VERTEX_POINT ( 'NONE', #32 ) ;
#44 = CIRCLE ( 'NONE', #221, 16.25000000000000000 ) ;
#45 = ORIENTED_EDGE ( 'NONE', *, *, #190, .F. ) ;
#46 = EDGE_LOOP ( 'NONE', ( #202, #195, #222, #28 ) ) ;
#47 = DIRECTION ( 'NONE',  ( -0.000000000000000000, -0.000000000000000000, -1.000000000000000000 ) ) ;
#48 = VECTOR ( 'NONE', #121, 1000.000000000000000 ) ;
#49 = CARTESIAN_POINT ( 'NONE',  ( 0.000000000000000000, 0.000000000000000000, -75.00000000000000000 ) ) ;
#50 = CC_DESIGN_SECURITY_CLASSIFICATION ( #174, ( #140 ) ) ;
#51 = CC_DESIGN_PERSON_AND_ORGANIZATION_ASSIGNMENT ( #3, #64, ( #69 ) ) ;
#52 = COORDINATED_UNIVERSAL_TIME_OFFSET ( 1, 0, .AHEAD. ) ;
#53 = FACE_OUTER_BOUND ( 'NONE', #127, .T. ) ;
#54 = LINE ( 'NONE', #173, #48 ) ;
#55 = CARTESIAN_POINT ( 'NONE',  ( -20.00000000000000000, 0.000000000000000000, 75.00000000000000000 ) ) ;
#56 = ADVANCED_FACE ( 'NONE', ( #11 ), #176, .T. ) ;
#57 = APPLICATION_PROTOCOL_DEFINITION ( 'international standard', 'config_control_design', 1994, #136 ) ;
#58 = PERSON_AND_ORGANIZATION ( #63, #157 ) ;
#59 = CC_DESIGN_DATE_AND_TIME_ASSIGNMENT ( #24, #149, ( #69 ) ) ;
#60 = CARTESIAN_POINT ( 'NONE',  ( 16.25000000000000000, 1.990051048614449313E-15, 75.00000000000000000 ) ) ;
#61 = DIRECTION ( 'NONE',  ( -0.000000000000000000, -0.000000000000000000, -1.000000000000000000 ) ) ;
#62 = ORIENTED_EDGE ( 'NONE', *, *, #245, .T. ) ;
#63 = PERSON ( 'UNSPECIFIED', 'UNSPECIFIED', 'UNSPECIFIED', ('UNSPECIFIED'), ('UNSPECIFIED'), ('UNSPECIFIED') ) ;
#64 = PERSON_AND_ORGANIZATION_ROLE ( 'creator' ) ;
#65 = APPROVAL_ROLE ( '' ) ;
#66 = ORIENTED_EDGE ( 'NONE', *, *, #161, .T. ) ;
#67 = AXIS2_PLACEMENT_3D ( 'NONE', #159, #117, #79 ) ;
#68 = DATE_TIME_ROLE ( 'classification_date' ) ;
#69 = PRODUCT_DEFINITION ( 'UNKNOWN', '', #140, #142 ) ;
#70 = EDGE_LOOP ( 'NONE', ( #133, #90 ) ) ;
#71 = CARTESIAN_POINT ( 'NONE',  ( -20.00000000000000000, 0.000000000000000000, 75.00000000000000000 ) ) ;
#72 = ADVANCED_FACE ( 'NONE', ( #188 ), #155, .T. ) ;
#73 = CARTESIAN_POINT ( 'NONE',  ( 0.000000000000000000, 0.000000000000000000, -75.00000000000000000 ) ) ;
#74 = CALENDAR_DATE ( 2023, 13, 2 ) ;
#75 = LOCAL_TIME ( 8, 16, 38.00000000000000000, #218 ) ;
#76 = CARTESIAN_POINT ( 'NONE',  ( 0.000000000000000000, 0.000000000000000000, 75.00000000000000000 ) ) ;
#77 = CARTESIAN_POINT ( 'NONE',  ( 0.000000000000000000, 0.000000000000000000, -75.00000000000000000 ) ) ;
#78 = MANIFOLD_SOLID_BREP ( 'Boss.-Extru.1', #26 ) ;
#79 = DIRECTION ( 'NONE',  ( 1.000000000000000000, 0.000000000000000000, -0.000000000000000000 ) ) ;
#80 = EDGE_CURVE ( 'NONE', #150, #169, #37, .T. ) ;
#81 = PERSON_AND_ORGANIZATION ( #63, #157 ) ;
#82 = VECTOR ( 'NONE', #243, 1000.000000000000000 ) ;
#83 = DIRECTION ( 'NONE',  ( -1.000000000000000000, 0.000000000000000000, 0.000000000000000000 ) ) ;
#84 = DIRECTION ( 'NONE',  ( 0.000000000000000000, 0.000000000000000000, 1.000000000000000000 ) ) ;
#85 = CARTESIAN_POINT ( 'NONE',  ( 0.000000000000000000, 0.000000000000000000, 0.000000000000000000 ) ) ;
#86 = VECTOR ( 'NONE', #47, 1000.000000000000000 ) ;
#87 = VERTEX_POINT ( 'NONE', #36 ) ;
#88 = ORIENTED_EDGE ( 'NONE', *, *, #161, .F. ) ;
#89 = ADVANCED_FACE ( 'NONE', ( #93, #156 ), #216, .F. ) ;
#90 = ORIENTED_EDGE ( 'NONE', *, *, #245, .F. ) ;
#91 = EDGE_LOOP ( 'NONE', ( #153, #219 ) ) ;
#92 = CC_DESIGN_PERSON_AND_ORGANIZATION_ASSIGNMENT ( #182, #201, ( #174 ) ) ;
#93 = FACE_OUTER_BOUND ( 'NONE', #38, .T. ) ;
#94 = DATE_AND_TIME ( #74, #97 ) ;
#95 = CYLINDRICAL_SURFACE ( 'NONE', #12, 16.25000000000000000 ) ;
#96 = AXIS2_PLACEMENT_3D ( 'NONE', #76, #224, #99 ) ;
#97 = LOCAL_TIME ( 8, 16, 38.00000000000000000, #111 ) ;
#98 = DIRECTION ( 'NONE',  ( 0.000000000000000000, 0.000000000000000000, 1.000000000000000000 ) ) ;
#99 = DIRECTION ( 'NONE',  ( -1.000000000000000000, 0.000000000000000000, 0.000000000000000000 ) ) ;
#100 = AXIS2_PLACEMENT_3D ( 'NONE', #137, #228, #116 ) ;
#101 = CC_DESIGN_PERSON_AND_ORGANIZATION_ASSIGNMENT ( #238, #124, ( #212 ) ) ;
#102 = CYLINDRICAL_SURFACE ( 'NONE', #183, 16.25000000000000000 ) ;
#103 = APPROVAL_DATE_TIME ( #17, #128 ) ;
#104 = VECTOR ( 'NONE', #244, 1000.000000000000000 ) ;
#105 = APPROVAL_PERSON_ORGANIZATION ( #194, #114, #22 ) ;
#106 =( NAMED_UNIT ( * ) PLANE_ANGLE_UNIT ( ) SI_UNIT ( $, .RADIAN. ) );
#107 = DIRECTION ( 'NONE',  ( 1.000000000000000000, 0.000000000000000000, 0.000000000000000000 ) ) ;
#108 = VERTEX_POINT ( 'NONE', #187 ) ;
#109 = DIRECTION ( 'NONE',  ( 0.000000000000000000, 0.000000000000000000, 1.000000000000000000 ) ) ;
#110 = APPROVAL_PERSON_ORGANIZATION ( #81, #128, #129 ) ;
#111 = COORDINATED_UNIVERSAL_TIME_OFFSET ( 1, 0, .AHEAD. ) ;
#112 = ORIENTED_EDGE ( 'NONE', *, *, #200, .F. ) ;
#113 = ORIENTED_EDGE ( 'NONE', *, *, #164, .F. ) ;
#114 = APPROVAL ( #147, 'UNSPECIFIED' ) ;
#115 = DIRECTION ( 'NONE',  ( 1.000000000000000000, 0.000000000000000000, 0.000000000000000000 ) ) ;
#116 = DIRECTION ( 'NONE',  ( 1.000000000000000000, 0.000000000000000000, 0.000000000000000000 ) ) ;
#117 = DIRECTION ( 'NONE',  ( 0.000000000000000000, 0.000000000000000000, 1.000000000000000000 ) ) ;
#118 = CIRCLE ( 'NONE', #211, 20.00000000000000000 ) ;
#119 = CARTESIAN_POINT ( 'NONE',  ( 0.000000000000000000, 0.000000000000000000, 75.00000000000000000 ) ) ;
#120 = APPROVAL ( #158, 'UNSPECIFIED' ) ;
#121 = DIRECTION ( 'NONE',  ( -0.000000000000000000, -0.000000000000000000, -1.000000000000000000 ) ) ;
#122 = APPLICATION_PROTOCOL_DEFINITION ( 'international standard', 'config_control_design', 1994, #213 ) ;
#123 = PERSON_AND_ORGANIZATION_ROLE ( 'design_supplier' ) ;
#124 = PERSON_AND_ORGANIZATION_ROLE ( 'design_owner' ) ;
#125 = ORIENTED_EDGE ( 'NONE', *, *, #148, .T. ) ;
#126 = MECHANICAL_CONTEXT ( 'NONE', #136, 'mechanical' ) ;
#127 = EDGE_LOOP ( 'NONE', ( #25, #66, #223, #45 ) ) ;
#128 = APPROVAL ( #42, 'UNSPECIFIED' ) ;
#129 = APPROVAL_ROLE ( '' ) ;
#130 = AXIS2_PLACEMENT_3D ( 'NONE', #205, #240, #13 ) ;
#131 = EDGE_LOOP ( 'NONE', ( #125, #239 ) ) ;
#132 = ORIENTED_EDGE ( 'NONE', *, *, #39, .T. ) ;
#133 = ORIENTED_EDGE ( 'NONE', *, *, #214, .F. ) ;
#134 = DIRECTION ( 'NONE',  ( 0.000000000000000000, 0.000000000000000000, 1.000000000000000000 ) ) ;
#135 = DIRECTION ( 'NONE',  ( 0.000000000000000000, 0.000000000000000000, 1.000000000000000000 ) ) ;
#136 = APPLICATION_CONTEXT ( 'configuration controlled 3d designs of mechanical parts and assemblies' ) ;
#137 = CARTESIAN_POINT ( 'NONE',  ( 0.000000000000000000, 0.000000000000000000, 75.00000000000000000 ) ) ;
#138 = EDGE_CURVE ( 'NONE', #87, #197, #10, .T. ) ;
#139 = CIRCLE ( 'NONE', #236, 20.00000000000000000 ) ;
#140 = PRODUCT_DEFINITION_FORMATION_WITH_SPECIFIED_SOURCE ( 'ANY', '', #212, .NOT_KNOWN. ) ;
#141 = CC_DESIGN_APPROVAL ( #114, ( #69 ) ) ;
#142 = DESIGN_CONTEXT ( 'detailed design', #213, 'design' ) ;
#143 = DIRECTION ( 'NONE',  ( 0.000000000000000000, 0.000000000000000000, 1.000000000000000000 ) ) ;
#144 = CC_DESIGN_APPROVAL ( #128, ( #140 ) ) ;
#145 = DATE_AND_TIME ( #40, #75 ) ;
#146 = DIRECTION ( 'NONE',  ( 1.000000000000000000, 0.000000000000000000, 0.000000000000000000 ) ) ;
#147 = APPROVAL_STATUS ( 'not_yet_approved' ) ;
#148 = EDGE_CURVE ( 'NONE', #43, #108, #44, .T. ) ;
#149 = DATE_TIME_ROLE ( 'creation_date' ) ;
#150 = VERTEX_POINT ( 'NONE', #246 ) ;
#151 = EDGE_LOOP ( 'NONE', ( #170, #132, #7, #184 ) ) ;
#152 = AXIS2_PLACEMENT_3D ( 'NONE', #193, #109, #107 ) ;
#153 = ORIENTED_EDGE ( 'NONE', *, *, #179, .T. ) ;
#154 = DATE_AND_TIME ( #167, #232 ) ;
#155 = CYLINDRICAL_SURFACE ( 'NONE', #96, 20.00000000000000000 ) ;
#156 = FACE_BOUND ( 'NONE', #131, .T. ) ;
#157 = ORGANIZATION ( 'UNSPECIFIED', 'UNSPECIFIED', '' ) ;
#158 = APPROVAL_STATUS ( 'not_yet_approved' ) ;
#159 = CARTESIAN_POINT ( 'NONE',  ( 0.000000000000000000, 0.000000000000000000, -75.00000000000000000 ) ) ;
#160 = CARTESIAN_POINT ( 'NONE',  ( -16.25000000000000000, 0.000000000000000000, 75.00000000000000000 ) ) ;
#161 = EDGE_CURVE ( 'NONE', #5, #108, #241, .T. ) ;
#162 = DIRECTION ( 'NONE',  ( 1.000000000000000000, 0.000000000000000000, 0.000000000000000000 ) ) ;
#163 = PERSON_AND_ORGANIZATION_ROLE ( 'creator' ) ;
#164 = EDGE_CURVE ( 'NONE', #169, #150, #139, .T. ) ;
#165 = CALENDAR_DATE ( 2023, 13, 2 ) ;
#166 = PLANE ( 'NONE',  #4 ) ;
#167 = CALENDAR_DATE ( 2023, 13, 2 ) ;
#168 = AXIS2_PLACEMENT_3D ( 'NONE', #49, #135, #115 ) ;
#169 = VERTEX_POINT ( 'NONE', #9 ) ;
#170 = ORIENTED_EDGE ( 'NONE', *, *, #138, .F. ) ;
#171 = DIRECTION ( 'NONE',  ( 1.000000000000000000, 0.000000000000000000, 0.000000000000000000 ) ) ;
#172 = EDGE_CURVE ( 'NONE', #197, #150, #16, .T. ) ;
#173 = CARTESIAN_POINT ( 'NONE',  ( 20.00000000000000000, 2.449293598294706513E-15, 75.00000000000000000 ) ) ;
#174 = SECURITY_CLASSIFICATION ( '', '', #21 ) ;
#175 = LINE ( 'NONE', #160, #104 ) ;
#176 = CYLINDRICAL_SURFACE ( 'NONE', #130, 20.00000000000000000 ) ;
#177 = COORDINATED_UNIVERSAL_TIME_OFFSET ( 1, 0, .AHEAD. ) ;
#178 = CARTESIAN_POINT ( 'NONE',  ( 0.000000000000000000, 0.000000000000000000, 75.00000000000000000 ) ) ;
#179 = EDGE_CURVE ( 'NONE', #197, #87, #118, .T. ) ;
#180 = SHAPE_DEFINITION_REPRESENTATION ( #15, #203 ) ;
#181 = PRODUCT_RELATED_PRODUCT_CATEGORY ( 'detail', '', ( #212 ) ) ;
#182 = PERSON_AND_ORGANIZATION ( #63, #157 ) ;
#183 = AXIS2_PLACEMENT_3D ( 'NONE', #8, #207, #31 ) ;
#184 = ORIENTED_EDGE ( 'NONE', *, *, #172, .F. ) ;
#185 = DIRECTION ( 'NONE',  ( 1.000000000000000000, 0.000000000000000000, 0.000000000000000000 ) ) ;
#186 = FACE_OUTER_BOUND ( 'NONE', #41, .T. ) ;
#187 = CARTESIAN_POINT ( 'NONE',  ( 16.25000000000000000, 1.990051048614449313E-15, -75.00000000000000000 ) ) ;
#188 = FACE_OUTER_BOUND ( 'NONE', #46, .T. ) ;
#189 = DIRECTION ( 'NONE',  ( 1.000000000000000000, 0.000000000000000000, 0.000000000000000000 ) ) ;
#190 = EDGE_CURVE ( 'NONE', #237, #43, #175, .T. ) ;
#191 = APPROVAL_DATE_TIME ( #145, #114 ) ;
#192 = CIRCLE ( 'NONE', #100, 16.25000000000000000 ) ;
#193 = CARTESIAN_POINT ( 'NONE',  ( 0.000000000000000000, 0.000000000000000000, 75.00000000000000000 ) ) ;
#194 = PERSON_AND_ORGANIZATION ( #63, #157 ) ;
#195 = ORIENTED_EDGE ( 'NONE', *, *, #179, .F. ) ;
#196 = COORDINATED_UNIVERSAL_TIME_OFFSET ( 1, 0, .AHEAD. ) ;
#197 = VERTEX_POINT ( 'NONE', #71 ) ;
#198 =( NAMED_UNIT ( * ) SI_UNIT ( $, .STERADIAN. ) SOLID_ANGLE_UNIT ( ) );
#199 = CIRCLE ( 'NONE', #152, 16.25000000000000000 ) ;
#200 = EDGE_CURVE ( 'NONE', #108, #43, #18, .T. ) ;
#201 = PERSON_AND_ORGANIZATION_ROLE ( 'classification_officer' ) ;
#202 = ORIENTED_EDGE ( 'NONE', *, *, #39, .F. ) ;
#203 = ADVANCED_BREP_SHAPE_REPRESENTATION ( 'tube 25CrMo4', ( #78, #29 ), #35 ) ;
#204 = AXIS2_PLACEMENT_3D ( 'NONE', #77, #231, #210 ) ;
#205 = CARTESIAN_POINT ( 'NONE',  ( 0.000000000000000000, 0.000000000000000000, 75.00000000000000000 ) ) ;
#206 = ADVANCED_FACE ( 'NONE', ( #53 ), #102, .F. ) ;
#207 = DIRECTION ( 'NONE',  ( -0.000000000000000000, -0.000000000000000000, -1.000000000000000000 ) ) ;
#208 = PERSON_AND_ORGANIZATION ( #63, #157 ) ;
#209 = CARTESIAN_POINT ( 'NONE',  ( 0.000000000000000000, 0.000000000000000000, 75.00000000000000000 ) ) ;
#210 = DIRECTION ( 'NONE',  ( 1.000000000000000000, 0.000000000000000000, 0.000000000000000000 ) ) ;
#211 = AXIS2_PLACEMENT_3D ( 'NONE', #30, #143, #185 ) ;
#212 = PRODUCT ( 'tube 25CrMo4', 'tube 25CrMo4', '', ( #126 ) ) ;
#213 = APPLICATION_CONTEXT ( 'configuration controlled 3d designs of mechanical parts and assemblies' ) ;
#214 = EDGE_CURVE ( 'NONE', #237, #5, #192, .T. ) ;
#215 = LOCAL_TIME ( 8, 16, 38.00000000000000000, #196 ) ;
#216 = PLANE ( 'NONE',  #67 ) ;
#217 = FACE_OUTER_BOUND ( 'NONE', #91, .T. ) ;
#218 = COORDINATED_UNIVERSAL_TIME_OFFSET ( 1, 0, .AHEAD. ) ;
#219 = ORIENTED_EDGE ( 'NONE', *, *, #138, .T. ) ;
#220 = ADVANCED_FACE ( 'NONE', ( #186 ), #95, .F. ) ;
#221 = AXIS2_PLACEMENT_3D ( 'NONE', #34, #226, #189 ) ;
#222 = ORIENTED_EDGE ( 'NONE', *, *, #172, .T. ) ;
#223 = ORIENTED_EDGE ( 'NONE', *, *, #148, .F. ) ;
#224 = DIRECTION ( 'NONE',  ( -0.000000000000000000, -0.000000000000000000, -1.000000000000000000 ) ) ;
#225 = ADVANCED_FACE ( 'NONE', ( #217, #234 ), #166, .T. ) ;
#226 = DIRECTION ( 'NONE',  ( 0.000000000000000000, 0.000000000000000000, 1.000000000000000000 ) ) ;
#227 = CARTESIAN_POINT ( 'NONE',  ( 16.25000000000000000, 1.990051048614449313E-15, 75.00000000000000000 ) ) ;
#228 = DIRECTION ( 'NONE',  ( 0.000000000000000000, 0.000000000000000000, 1.000000000000000000 ) ) ;
#229 = APPROVAL_PERSON_ORGANIZATION ( #208, #120, #65 ) ;
#230 = UNCERTAINTY_MEASURE_WITH_UNIT (LENGTH_MEASURE( 1.000000000000000082E-05 ), #1, 'distance_accuracy_value', 'NONE');
#231 = DIRECTION ( 'NONE',  ( 0.000000000000000000, 0.000000000000000000, 1.000000000000000000 ) ) ;
#232 = LOCAL_TIME ( 8, 16, 38.00000000000000000, #52 ) ;
#233 = PERSON_AND_ORGANIZATION ( #63, #157 ) ;
#234 = FACE_BOUND ( 'NONE', #70, .T. ) ;
#235 = DIRECTION ( 'NONE',  ( 0.000000000000000000, 0.000000000000000000, 1.000000000000000000 ) ) ;
#236 = AXIS2_PLACEMENT_3D ( 'NONE', #73, #134, #162 ) ;
#237 = VERTEX_POINT ( 'NONE', #249 ) ;
#238 = PERSON_AND_ORGANIZATION ( #63, #157 ) ;
#239 = ORIENTED_EDGE ( 'NONE', *, *, #200, .T. ) ;
#240 = DIRECTION ( 'NONE',  ( -0.000000000000000000, -0.000000000000000000, -1.000000000000000000 ) ) ;
#241 = LINE ( 'NONE', #227, #86 ) ;
#242 = APPROVAL_DATE_TIME ( #154, #120 ) ;
#243 = DIRECTION ( 'NONE',  ( -0.000000000000000000, -0.000000000000000000, -1.000000000000000000 ) ) ;
#244 = DIRECTION ( 'NONE',  ( -0.000000000000000000, -0.000000000000000000, -1.000000000000000000 ) ) ;
#245 = EDGE_CURVE ( 'NONE', #5, #237, #199, .T. ) ;
#246 = CARTESIAN_POINT ( 'NONE',  ( -20.00000000000000000, 0.000000000000000000, -75.00000000000000000 ) ) ;
#247 = CC_DESIGN_DATE_AND_TIME_ASSIGNMENT ( #94, #68, ( #174 ) ) ;
#248 = CALENDAR_DATE ( 2023, 13, 2 ) ;
#249 = CARTESIAN_POINT ( 'NONE',  ( -16.25000000000000000, 0.000000000000000000, 75.00000000000000000 ) ) ;
ENDSEC;
END-ISO-10303-21;
