ISO-10303-21;
HEADER;

/* File generated by Shapr3D Version 3.0 */

FILE_DESCRIPTION(('HOOPS Exchange Step'),'2;1');

FILE_NAME('C:\\Users\\andre\\AppData\\Local\\Packages\\Shapr3D.Shapr3D_dvv5p1vgwv6mp\\TempState\\export\\temp_export',
'2023-02-08T10:05:13+01:00',
('andre'),
('Shapr3D Limited'),
'HOOPS Exchange 2022.2',
'Shapr3D',
'Authorized');

FILE_SCHEMA( ('AUTOMOTIVE_DESIGN { 1 0 10303 214 1 1 1 1 }') );

ENDSEC;

DATA;
#3=(NAMED_UNIT(*)PLANE_ANGLE_UNIT()SI_UNIT($,.RADIAN.));
#4=PLANE_ANGLE_MEASURE_WITH_UNIT(PLANE_ANGLE_MEASURE(0.0174532925),#3);
#5=(CONVERSION_BASED_UNIT('DEGREE',#4)NAMED_UNIT(#6)PLANE_ANGLE_UNIT());
#6=DIMENSIONAL_EXPONENTS(0.,0.,0.,0.,0.,0.,0.);
#7=(NAMED_UNIT(*)SI_UNIT($,.STERADIAN.)SOLID_ANGLE_UNIT());
#8=(LENGTH_UNIT()NAMED_UNIT(*)SI_UNIT(.MILLI.,.METRE.));
#9=UNCERTAINTY_MEASURE_WITH_UNIT(LENGTH_MEASURE(1.000000E-05),#8,'DISTANCE_ACCURACY_VALUE','Maximum Tolerance applied to model');
#10=(GEOMETRIC_REPRESENTATION_CONTEXT(3)GLOBAL_UNCERTAINTY_ASSIGNED_CONTEXT((#9))GLOBAL_UNIT_ASSIGNED_CONTEXT((#8,#5,#7))REPRESENTATION_CONTEXT('','root'));
#12=CARTESIAN_POINT('',(0.,0.,0.));
#13=DIRECTION('',(0.,0.,1.));
#14=DIRECTION('',(1.,0.,0.));
#15=AXIS2_PLACEMENT_3D('',#12,#13,#14);
#27=CARTESIAN_POINT('',(-14.45,0.,67.9));
#28=DIRECTION('',(0.,0.,1.));
#29=DIRECTION('',(1.,0.,0.));
#30=AXIS2_PLACEMENT_3D('',#27,#28,#29);
#31=PLANE('',#30);
#32=CARTESIAN_POINT('',(15.7,-0.,67.9));
#33=VERTEX_POINT('',#32);
#34=CARTESIAN_POINT('',(0.,0.,67.9));
#35=DIRECTION('',(-0.,-0.,-1.));
#36=DIRECTION('',(1.,0.,-0.));
#37=AXIS2_PLACEMENT_3D('',#34,#35,#36);
#38=CIRCLE('',#37,15.7);
#39=EDGE_CURVE('',#33,#33,#38,.T.);
#40=ORIENTED_EDGE('',*,*,#39,.T.);
#41=EDGE_LOOP('',(#40));
#42=FACE_BOUND('',#41,.T.);
#43=CARTESIAN_POINT('',(13.2,-0.,67.9));
#44=VERTEX_POINT('',#43);
#45=CARTESIAN_POINT('',(-13.2,0.,67.9));
#46=VERTEX_POINT('',#45);
#47=CARTESIAN_POINT('',(0.,0.,67.9));
#48=DIRECTION('',(0.,0.,1.));
#49=DIRECTION('',(1.,0.,-0.));
#50=AXIS2_PLACEMENT_3D('',#47,#48,#49);
#51=CIRCLE('',#50,13.2);
#52=EDGE_CURVE('',#44,#46,#51,.T.);
#53=ORIENTED_EDGE('',*,*,#52,.T.);
#54=CARTESIAN_POINT('',(0.,0.,67.9));
#55=DIRECTION('',(0.,0.,1.));
#56=DIRECTION('',(1.,0.,-0.));
#57=AXIS2_PLACEMENT_3D('',#54,#55,#56);
#58=CIRCLE('',#57,13.2);
#59=EDGE_CURVE('',#46,#44,#58,.T.);
#60=ORIENTED_EDGE('',*,*,#59,.T.);
#61=EDGE_LOOP('',(#53,#60));
#62=FACE_BOUND('',#61,.T.);
#63=ADVANCED_FACE('',(#42,#62),#31,.F.);
#64=COLOUR_RGB('',0.494117647,0.494117647,0.525490224);
#65=FILL_AREA_STYLE_COLOUR('',#64);
#66=FILL_AREA_STYLE('',(#65));
#67=SURFACE_STYLE_FILL_AREA(#66);
#68=SURFACE_SIDE_STYLE('',(#67));
#69=SURFACE_STYLE_USAGE(.BOTH.,#68);
#70=PRESENTATION_STYLE_ASSIGNMENT((#69));
#71=OVER_RIDING_STYLED_ITEM('',(#70),#63,#26);
#72=CARTESIAN_POINT('',(0.,0.,7.9));
#73=DIRECTION('',(0.,0.,1.));
#74=DIRECTION('',(1.,0.,-0.));
#75=AXIS2_PLACEMENT_3D('',#72,#73,#74);
#76=CYLINDRICAL_SURFACE('',#75,13.);
#77=CARTESIAN_POINT('',(13.,0.,81.2));
#78=VERTEX_POINT('',#77);
#79=CARTESIAN_POINT('',(13.,-0.,68.1));
#80=VERTEX_POINT('',#79);
#81=CARTESIAN_POINT('',(13.,0.,81.2));
#82=DIRECTION('',(-0.,-0.,-1.));
#83=VECTOR('',#82,13.1);
#84=LINE('',#81,#83);
#85=EDGE_CURVE('',#78,#80,#84,.T.);
#86=ORIENTED_EDGE('',*,*,#85,.F.);
#87=CARTESIAN_POINT('',(-13.,-0.,81.2));
#88=VERTEX_POINT('',#87);
#89=CARTESIAN_POINT('',(0.,0.,81.2));
#90=DIRECTION('',(-0.,-0.,1.));
#91=DIRECTION('',(-1.,0.,0.));
#92=AXIS2_PLACEMENT_3D('',#89,#90,#91);
#93=CIRCLE('',#92,13.);
#94=EDGE_CURVE('',#78,#88,#93,.T.);
#95=ORIENTED_EDGE('',*,*,#94,.T.);
#96=CARTESIAN_POINT('',(0.,0.,81.2));
#97=DIRECTION('',(-0.,-0.,1.));
#98=DIRECTION('',(-1.,0.,0.));
#99=AXIS2_PLACEMENT_3D('',#96,#97,#98);
#100=CIRCLE('',#99,13.);
#101=EDGE_CURVE('',#88,#78,#100,.T.);
#102=ORIENTED_EDGE('',*,*,#101,.T.);
#103=ORIENTED_EDGE('',*,*,#85,.T.);
#104=CARTESIAN_POINT('',(-13.,0.,68.1));
#105=VERTEX_POINT('',#104);
#106=CARTESIAN_POINT('',(0.,0.,68.1));
#107=DIRECTION('',(-0.,-0.,-1.));
#108=DIRECTION('',(1.,0.,-0.));
#109=AXIS2_PLACEMENT_3D('',#106,#107,#108);
#110=CIRCLE('',#109,13.);
#111=EDGE_CURVE('',#80,#105,#110,.T.);
#112=ORIENTED_EDGE('',*,*,#111,.T.);
#113=CARTESIAN_POINT('',(0.,0.,68.1));
#114=DIRECTION('',(-0.,-0.,-1.));
#115=DIRECTION('',(1.,0.,-0.));
#116=AXIS2_PLACEMENT_3D('',#113,#114,#115);
#117=CIRCLE('',#116,13.);
#118=EDGE_CURVE('',#105,#80,#117,.T.);
#119=ORIENTED_EDGE('',*,*,#118,.T.);
#120=EDGE_LOOP('',(#86,#95,#102,#103,#112,#119));
#121=FACE_BOUND('',#120,.T.);
#122=ADVANCED_FACE('',(#121),#76,.F.);
#123=CARTESIAN_POINT('',(-14.45,0.,81.4));
#124=DIRECTION('',(0.,0.,-1.));
#125=DIRECTION('',(-1.,0.,0.));
#126=AXIS2_PLACEMENT_3D('',#123,#124,#125);
#127=PLANE('',#126);
#128=CARTESIAN_POINT('',(-15.7,-0.,81.4));
#129=VERTEX_POINT('',#128);
#130=CARTESIAN_POINT('',(0.,0.,81.4));
#131=DIRECTION('',(-0.,-0.,1.));
#132=DIRECTION('',(-1.,0.,0.));
#133=AXIS2_PLACEMENT_3D('',#130,#131,#132);
#134=CIRCLE('',#133,15.7);
#135=EDGE_CURVE('',#129,#129,#134,.T.);
#136=ORIENTED_EDGE('',*,*,#135,.T.);
#137=EDGE_LOOP('',(#136));
#138=FACE_BOUND('',#137,.T.);
#139=CARTESIAN_POINT('',(-13.2,-0.,81.4));
#140=VERTEX_POINT('',#139);
#141=CARTESIAN_POINT('',(13.2,0.,81.4));
#142=VERTEX_POINT('',#141);
#143=CARTESIAN_POINT('',(0.,0.,81.4));
#144=DIRECTION('',(0.,0.,-1.));
#145=DIRECTION('',(-1.,0.,0.));
#146=AXIS2_PLACEMENT_3D('',#143,#144,#145);
#147=CIRCLE('',#146,13.2);
#148=EDGE_CURVE('',#140,#142,#147,.T.);
#149=ORIENTED_EDGE('',*,*,#148,.T.);
#150=CARTESIAN_POINT('',(0.,0.,81.4));
#151=DIRECTION('',(0.,0.,-1.));
#152=DIRECTION('',(-1.,0.,0.));
#153=AXIS2_PLACEMENT_3D('',#150,#151,#152);
#154=CIRCLE('',#153,13.2);
#155=EDGE_CURVE('',#142,#140,#154,.T.);
#156=ORIENTED_EDGE('',*,*,#155,.T.);
#157=EDGE_LOOP('',(#149,#156));
#158=FACE_BOUND('',#157,.T.);
#159=ADVANCED_FACE('',(#138,#158),#127,.F.);
#160=CARTESIAN_POINT('',(0.,0.,7.9));
#161=DIRECTION('',(0.,0.,1.));
#162=DIRECTION('',(1.,0.,-0.));
#163=AXIS2_PLACEMENT_3D('',#160,#161,#162);
#164=CYLINDRICAL_SURFACE('',#163,15.9);
#165=CARTESIAN_POINT('',(15.9,0.,81.2));
#166=VERTEX_POINT('',#165);
#167=CARTESIAN_POINT('',(15.9,-0.,68.1));
#168=VERTEX_POINT('',#167);
#169=CARTESIAN_POINT('',(15.9,0.,81.2));
#170=DIRECTION('',(-0.,-0.,-1.));
#171=VECTOR('',#170,13.1);
#172=LINE('',#169,#171);
#173=EDGE_CURVE('',#166,#168,#172,.T.);
#174=ORIENTED_EDGE('',*,*,#173,.T.);
#175=CARTESIAN_POINT('',(0.,0.,68.1));
#176=DIRECTION('',(0.,0.,1.));
#177=DIRECTION('',(1.,0.,-0.));
#178=AXIS2_PLACEMENT_3D('',#175,#176,#177);
#179=CIRCLE('',#178,15.9);
#180=EDGE_CURVE('',#168,#168,#179,.T.);
#181=ORIENTED_EDGE('',*,*,#180,.T.);
#182=ORIENTED_EDGE('',*,*,#173,.F.);
#183=CARTESIAN_POINT('',(-15.9,-0.,81.2));
#184=VERTEX_POINT('',#183);
#185=CARTESIAN_POINT('',(0.,0.,81.2));
#186=DIRECTION('',(0.,0.,-1.));
#187=DIRECTION('',(-1.,0.,0.));
#188=AXIS2_PLACEMENT_3D('',#185,#186,#187);
#189=CIRCLE('',#188,15.9);
#190=EDGE_CURVE('',#166,#184,#189,.T.);
#191=ORIENTED_EDGE('',*,*,#190,.T.);
#192=CARTESIAN_POINT('',(0.,0.,81.2));
#193=DIRECTION('',(0.,0.,-1.));
#194=DIRECTION('',(-1.,0.,0.));
#195=AXIS2_PLACEMENT_3D('',#192,#193,#194);
#196=CIRCLE('',#195,15.9);
#197=EDGE_CURVE('',#184,#166,#196,.T.);
#198=ORIENTED_EDGE('',*,*,#197,.T.);
#199=EDGE_LOOP('',(#174,#181,#182,#191,#198));
#200=FACE_BOUND('',#199,.T.);
#201=ADVANCED_FACE('',(#200),#164,.T.);
#202=CARTESIAN_POINT('',(0.,0.,81.2));
#203=DIRECTION('',(0.,0.,1.));
#204=DIRECTION('',(1.,0.,-0.));
#205=AXIS2_PLACEMENT_3D('',#202,#203,#204);
#206=CONICAL_SURFACE('',#205,13.,45.);
#207=CARTESIAN_POINT('',(13.2,0.,81.4));
#208=DIRECTION('',(-0.707106781,-0.,-0.707106781));
#209=VECTOR('',#208,0.282842712);
#210=LINE('',#207,#209);
#211=EDGE_CURVE('',#142,#78,#210,.T.);
#212=ORIENTED_EDGE('',*,*,#211,.F.);
#213=ORIENTED_EDGE('',*,*,#148,.F.);
#214=ORIENTED_EDGE('',*,*,#155,.F.);
#215=ORIENTED_EDGE('',*,*,#211,.T.);
#216=ORIENTED_EDGE('',*,*,#101,.F.);
#217=ORIENTED_EDGE('',*,*,#94,.F.);
#218=EDGE_LOOP('',(#212,#213,#214,#215,#216,#217));
#219=FACE_BOUND('',#218,.T.);
#220=ADVANCED_FACE('',(#219),#206,.F.);
#221=CARTESIAN_POINT('',(0.,0.,81.4));
#222=DIRECTION('',(0.,0.,-1.));
#223=DIRECTION('',(-1.,0.,0.));
#224=AXIS2_PLACEMENT_3D('',#221,#222,#223);
#225=CONICAL_SURFACE('',#224,15.7,45.);
#226=CARTESIAN_POINT('',(-15.9,0.,81.2));
#227=DIRECTION('',(0.707106781,-0.,0.707106781));
#228=VECTOR('',#227,0.282842712);
#229=LINE('',#226,#228);
#230=EDGE_CURVE('',#184,#129,#229,.T.);
#231=ORIENTED_EDGE('',*,*,#230,.T.);
#232=ORIENTED_EDGE('',*,*,#135,.F.);
#233=ORIENTED_EDGE('',*,*,#230,.F.);
#234=ORIENTED_EDGE('',*,*,#190,.F.);
#235=ORIENTED_EDGE('',*,*,#197,.F.);
#236=EDGE_LOOP('',(#231,#232,#233,#234,#235));
#237=FACE_BOUND('',#236,.T.);
#238=ADVANCED_FACE('',(#237),#225,.T.);
#239=CARTESIAN_POINT('',(0.,0.,68.1));
#240=DIRECTION('',(0.,0.,-1.));
#241=DIRECTION('',(-1.,0.,0.));
#242=AXIS2_PLACEMENT_3D('',#239,#240,#241);
#243=CONICAL_SURFACE('',#242,13.,45.);
#244=CARTESIAN_POINT('',(-13.2,0.,67.9));
#245=DIRECTION('',(0.707106781,-0.,0.707106781));
#246=VECTOR('',#245,0.282842712);
#247=LINE('',#244,#246);
#248=EDGE_CURVE('',#46,#105,#247,.T.);
#249=ORIENTED_EDGE('',*,*,#248,.F.);
#250=ORIENTED_EDGE('',*,*,#52,.F.);
#251=ORIENTED_EDGE('',*,*,#59,.F.);
#252=ORIENTED_EDGE('',*,*,#248,.T.);
#253=ORIENTED_EDGE('',*,*,#111,.F.);
#254=ORIENTED_EDGE('',*,*,#118,.F.);
#255=EDGE_LOOP('',(#249,#250,#251,#252,#253,#254));
#256=FACE_BOUND('',#255,.T.);
#257=ADVANCED_FACE('',(#256),#243,.F.);
#258=OVER_RIDING_STYLED_ITEM('',(#70),#257,#26);
#259=CARTESIAN_POINT('',(0.,0.,67.9));
#260=DIRECTION('',(0.,0.,1.));
#261=DIRECTION('',(1.,0.,-0.));
#262=AXIS2_PLACEMENT_3D('',#259,#260,#261);
#263=CONICAL_SURFACE('',#262,15.7,45.);
#264=CARTESIAN_POINT('',(15.9,0.,68.1));
#265=DIRECTION('',(-0.707106781,-0.,-0.707106781));
#266=VECTOR('',#265,0.282842712);
#267=LINE('',#264,#266);
#268=EDGE_CURVE('',#168,#33,#267,.T.);
#269=ORIENTED_EDGE('',*,*,#268,.T.);
#270=ORIENTED_EDGE('',*,*,#39,.F.);
#271=ORIENTED_EDGE('',*,*,#268,.F.);
#272=ORIENTED_EDGE('',*,*,#180,.F.);
#273=EDGE_LOOP('',(#269,#270,#271,#272));
#274=FACE_BOUND('',#273,.T.);
#275=ADVANCED_FACE('',(#274),#263,.T.);
#276=OVER_RIDING_STYLED_ITEM('',(#70),#275,#26);
#277=CLOSED_SHELL('',(#63,#122,#159,#201,#220,#238,#257,#275));
#278=MANIFOLD_SOLID_BREP('laiton court',#277);
#279=COLOUR_RGB('',0.905882359,0.760784328,0.443137258);
#280=FILL_AREA_STYLE_COLOUR('',#279);
#281=FILL_AREA_STYLE('',(#280));
#282=SURFACE_STYLE_FILL_AREA(#281);
#283=SURFACE_SIDE_STYLE('',(#282));
#284=SURFACE_STYLE_USAGE(.BOTH.,#283);
#285=PRESENTATION_STYLE_ASSIGNMENT((#284));
#26=STYLED_ITEM('',(#285),#278);
#16=SHAPE_REPRESENTATION('root',(#15),#10);
#17=ADVANCED_BREP_SHAPE_REPRESENTATION('root',(#278),#10);
#293=SHAPE_REPRESENTATION_RELATIONSHIP('','',#16,#17);
#294=APPLICATION_CONTEXT('data for automotive mechanical design processes');
#295=APPLICATION_PROTOCOL_DEFINITION('international standard','automotive_design',1994,#294);
#296=PRODUCT_CONTEXT('',#294,'mechanical');
#297=PRODUCT_DEFINITION_CONTEXT('part definition',#294,'design');
#24=PRODUCT('root','root','',(#296));
#298=PRODUCT_RELATED_PRODUCT_CATEGORY('part','',(#24));
#299=PRODUCT_DEFINITION_FORMATION_WITH_SPECIFIED_SOURCE('','',#24,.NOT_KNOWN.);
#25=PRODUCT_DEFINITION('design','',#299,#297);
#23=PRODUCT_DEFINITION_SHAPE('','',#25);
#300=SHAPE_DEFINITION_REPRESENTATION(#23,#16);
#11=DRAUGHTING_MODEL('',(),#10);
#1=MECHANICAL_DESIGN_GEOMETRIC_PRESENTATION_REPRESENTATION('',(#71,#258,#276,#26),#10);
ENDSEC;
END-ISO-10303-21;
