ISO-10303-21;
HEADER;
FILE_DESCRIPTION(('CATIA V5 STEP Exchange','CAx-IF Rec.Pracs.--- Model Styling and Organization---1.4--- 2014-01-23','CAx-IF Rec.Pracs.--- Geometric and Assembly Validation Properties ---4.2---2014-10-09','CAx-IF Rec.Pracs.---Tessellated 3D Geometry---0.5---2014-09-14'),'2;1');

FILE_NAME('C:\\Users\\SP002FE2\\Desktop\\ENTRETOISE\\ENTRETOISE 2.stp','2023-02-13T09:36:47+00:00',('none'),('none'),'CATIA Version 5-6 Release 2017 SP2 HF134','CATIA V5 STEP AP242 v1','none');

FILE_SCHEMA(('AP242_MANAGED_MODEL_BASED_3D_ENGINEERING_MIM_LF  {1 0 10303 442 1 1 4}'));

ENDSEC;
DATA;
#5=PRODUCT('ENTRETOISE 2','','',(#2)) ;
#2=PRODUCT_CONTEXT(' ',#1,'mechanical') ;
#1=APPLICATION_CONTEXT('managed model based 3d engineering') ;
#10=PRODUCT_DEFINITION('',' ',#6,#3) ;
#3=PRODUCT_DEFINITION_CONTEXT('part definition',#1,' ') ;
#271=REPRESENTATION('',(#274,#277,#280),#16) ;
#296=REPRESENTATION('',(#299,#300,#301,#302,#303),#16) ;
#11=PRODUCT_DEFINITION_SHAPE(' ',' ',#10) ;
#272=PROPERTY_DEFINITION('geometric validation property','',#269) ;
#297=PROPERTY_DEFINITION('geometric validation property','',#11) ;
#269=SHAPE_ASPECT('','Solid',#11,.F.) ;
#294=MECHANICAL_DESIGN_GEOMETRIC_PRESENTATION_REPRESENTATION(' ',(#29),#16) ;
#295=MECHANICAL_DESIGN_GEOMETRIC_PRESENTATION_REPRESENTATION(' ',(#291),#16) ;
#19=SHAPE_REPRESENTATION(' ',(#18),#16) ;
#277=MEASURE_REPRESENTATION_ITEM('volume measure',VOLUME_MEASURE(3215.62952046),#276) ;
#280=MEASURE_REPRESENTATION_ITEM('wetted area measure',AREA_MEASURE(2876.27066989),#279) ;
#302=MEASURE_REPRESENTATION_ITEM('volume measure',VOLUME_MEASURE(3215.62952046),#276) ;
#303=MEASURE_REPRESENTATION_ITEM('wetted area measure',AREA_MEASURE(2876.27066989),#279) ;
#276=DERIVED_UNIT((#275)) ;
#279=DERIVED_UNIT((#278)) ;
#275=DERIVED_UNIT_ELEMENT(#12,3.) ;
#278=DERIVED_UNIT_ELEMENT(#12,2.) ;
#7=PRODUCT_CATEGORY('part','specification') ;
#17=CARTESIAN_POINT(' ',(0.,0.,0.)) ;
#31=CARTESIAN_POINT('Axis2P3D Location',(0.,0.,7.5)) ;
#36=CARTESIAN_POINT('Line Origine',(14.5,0.,7.5)) ;
#40=CARTESIAN_POINT('Vertex',(14.5,0.,0.)) ;
#42=CARTESIAN_POINT('Vertex',(14.5,0.,15.)) ;
#45=CARTESIAN_POINT('Axis2P3D Location',(0.,0.,0.)) ;
#49=CARTESIAN_POINT('Vertex',(-14.5,1.77573785876E-015,0.)) ;
#52=CARTESIAN_POINT('Line Origine',(-14.5,1.77573785876E-015,7.5)) ;
#56=CARTESIAN_POINT('Vertex',(-14.5,1.77573785876E-015,15.)) ;
#59=CARTESIAN_POINT('Axis2P3D Location',(0.,0.,15.)) ;
#71=CARTESIAN_POINT('Axis2P3D Location',(0.,0.,0.)) ;
#76=CARTESIAN_POINT('Axis2P3D Location',(0.,0.,15.)) ;
#88=CARTESIAN_POINT('Axis2P3D Location',(0.,0.,0.)) ;
#97=CARTESIAN_POINT('Axis2P3D Location',(1.13834766497E-015,-6.15463673077E-016,0.)) ;
#101=CARTESIAN_POINT('Vertex',(12.4,-3.65258773496E-015,0.)) ;
#103=CARTESIAN_POINT('Vertex',(-12.4,-4.60360784428E-015,0.)) ;
#106=CARTESIAN_POINT('Axis2P3D Location',(1.13834766497E-015,-6.15463673077E-016,0.)) ;
#116=CARTESIAN_POINT('Axis2P3D Location',(7.62057084103E-014,1.93622895495E-014,12.4)) ;
#121=CARTESIAN_POINT('Line Origine',(12.15,-4.06770788854E-016,0.25)) ;
#125=CARTESIAN_POINT('Vertex',(11.9,-2.40533057708E-014,0.5)) ;
#128=CARTESIAN_POINT('Axis2P3D Location',(2.22044604925E-015,-1.7763568394E-015,0.5)) ;
#132=CARTESIAN_POINT('Vertex',(-11.9,6.7419912882E-015,0.5)) ;
#135=CARTESIAN_POINT('Line Origine',(-12.15,7.4480528209E-015,0.25)) ;
#147=CARTESIAN_POINT('Axis2P3D Location',(8.54427639752E-014,-5.3119838426E-016,12.4)) ;
#152=CARTESIAN_POINT('Axis2P3D Location',(8.881784197E-016,-5.3119838426E-016,0.5)) ;
#164=CARTESIAN_POINT('Axis2P3D Location',(0.,0.,15.)) ;
#173=CARTESIAN_POINT('Axis2P3D Location',(1.13834766497E-015,-6.15463673077E-016,15.)) ;
#177=CARTESIAN_POINT('Vertex',(-12.4,-4.60360784428E-015,15.)) ;
#179=CARTESIAN_POINT('Vertex',(12.4,-3.65258773496E-015,15.)) ;
#182=CARTESIAN_POINT('Axis2P3D Location',(1.13834766497E-015,-6.15463673077E-016,15.)) ;
#192=CARTESIAN_POINT('Axis2P3D Location',(0.,0.,7.5)) ;
#197=CARTESIAN_POINT('Axis2P3D Location',(0.,0.,14.5)) ;
#201=CARTESIAN_POINT('Vertex',(-11.9,6.7419912882E-015,14.5)) ;
#203=CARTESIAN_POINT('Vertex',(11.9,-2.40533057708E-014,14.5)) ;
#206=CARTESIAN_POINT('Line Origine',(11.9,-1.34839825764E-014,7.5)) ;
#211=CARTESIAN_POINT('Line Origine',(-11.9,6.7419912882E-015,7.5)) ;
#223=CARTESIAN_POINT('Axis2P3D Location',(0.,0.,14.5)) ;
#235=CARTESIAN_POINT('Axis2P3D Location',(7.62057084103E-014,1.93622895495E-014,2.6)) ;
#240=CARTESIAN_POINT('Line Origine',(12.15,3.90368740917E-016,14.75)) ;
#245=CARTESIAN_POINT('Line Origine',(-12.15,-3.34331497845E-015,14.75)) ;
#257=CARTESIAN_POINT('Axis2P3D Location',(8.54427639752E-014,-5.3119838426E-016,2.6)) ;
#274=CARTESIAN_POINT('centre point',(-1.53791890808E-015,-3.18190118913E-015,7.5)) ;
#283=CARTESIAN_POINT('Axis2P3D Location',(0.,0.,0.)) ;
#299=CARTESIAN_POINT('centre point',(-1.53791890808E-015,-3.18190118913E-015,7.5)) ;
#300=CARTESIAN_POINT('bounding box corner point',(-14.5,-14.5,0.)) ;
#301=CARTESIAN_POINT('bounding box corner point',(14.5,14.5,15.)) ;
#8=PRODUCT_RELATED_PRODUCT_CATEGORY('part',$,(#5)) ;
#273=PROPERTY_DEFINITION_REPRESENTATION(#272,#271) ;
#298=PROPERTY_DEFINITION_REPRESENTATION(#297,#296) ;
#29=STYLED_ITEM(' ',(#28),#21) ;
#291=STYLED_ITEM(' ',(#290),#286) ;
#28=PRESENTATION_STYLE_ASSIGNMENT((#27)) ;
#290=PRESENTATION_STYLE_ASSIGNMENT((#289)) ;
#289=CURVE_STYLE(' ',#287,POSITIVE_LENGTH_MEASURE(0.129999995232),#288) ;
#27=SURFACE_STYLE_USAGE(.BOTH.,#26) ;
#26=SURFACE_SIDE_STYLE(' ',(#25)) ;
#25=SURFACE_STYLE_FILL_AREA(#24) ;
#24=FILL_AREA_STYLE(' ',(#23)) ;
#23=FILL_AREA_STYLE_COLOUR(' ',#22) ;
#38=VECTOR('Line Direction',#37,1.) ;
#54=VECTOR('Line Direction',#53,1.) ;
#123=VECTOR('Line Direction',#122,1.) ;
#137=VECTOR('Line Direction',#136,1.) ;
#208=VECTOR('Line Direction',#207,1.) ;
#213=VECTOR('Line Direction',#212,1.) ;
#242=VECTOR('Line Direction',#241,1.) ;
#247=VECTOR('Line Direction',#246,1.) ;
#32=DIRECTION('Axis2P3D Direction',(0.,0.,1.)) ;
#33=DIRECTION('Axis2P3D XDirection',(1.,0.,0.)) ;
#37=DIRECTION('Vector Direction',(0.,0.,1.)) ;
#46=DIRECTION('Axis2P3D Direction',(0.,0.,1.)) ;
#53=DIRECTION('Vector Direction',(0.,0.,1.)) ;
#60=DIRECTION('Axis2P3D Direction',(0.,0.,1.)) ;
#72=DIRECTION('Axis2P3D Direction',(0.,0.,1.)) ;
#77=DIRECTION('Axis2P3D Direction',(0.,0.,1.)) ;
#89=DIRECTION('Axis2P3D Direction',(0.,0.,1.)) ;
#90=DIRECTION('Axis2P3D XDirection',(1.,0.,0.)) ;
#98=DIRECTION('Axis2P3D Direction',(0.,0.,1.)) ;
#107=DIRECTION('Axis2P3D Direction',(0.,0.,1.)) ;
#117=DIRECTION('Axis2P3D Direction',(-6.2172489379E-015,-1.7763568394E-015,-1.)) ;
#118=DIRECTION('Axis2P3D XDirection',(1.,2.14881875734E-016,-6.19031837504E-015)) ;
#122=DIRECTION('Vector Direction',(0.707106781187,-1.15052153275E-015,-0.707106781187)) ;
#129=DIRECTION('Axis2P3D Direction',(-3.81706889623E-031,1.7763568394E-015,1.)) ;
#136=DIRECTION('Vector Direction',(-0.707106781187,-6.93385809335E-016,-0.707106781187)) ;
#148=DIRECTION('Axis2P3D Direction',(-7.1054273576E-015,2.36658271566E-030,-1.)) ;
#149=DIRECTION('Axis2P3D XDirection',(-0.5,0.866025403784,3.55614034311E-015)) ;
#153=DIRECTION('Axis2P3D Direction',(5.3290705182E-015,3.07674029821E-015,1.)) ;
#165=DIRECTION('Axis2P3D Direction',(0.,0.,1.)) ;
#166=DIRECTION('Axis2P3D XDirection',(1.,0.,0.)) ;
#174=DIRECTION('Axis2P3D Direction',(0.,0.,1.)) ;
#183=DIRECTION('Axis2P3D Direction',(0.,0.,1.)) ;
#193=DIRECTION('Axis2P3D Direction',(0.,0.,1.)) ;
#194=DIRECTION('Axis2P3D XDirection',(1.,0.,0.)) ;
#198=DIRECTION('Axis2P3D Direction',(0.,0.,1.)) ;
#207=DIRECTION('Vector Direction',(0.,0.,1.)) ;
#212=DIRECTION('Vector Direction',(0.,0.,1.)) ;
#224=DIRECTION('Axis2P3D Direction',(0.,0.,1.)) ;
#236=DIRECTION('Axis2P3D Direction',(-6.2172489379E-015,-1.7763568394E-015,1.)) ;
#237=DIRECTION('Axis2P3D XDirection',(1.,2.14881875734E-016,6.19031837504E-015)) ;
#241=DIRECTION('Vector Direction',(0.707106781187,-1.10412953546E-015,0.707106781187)) ;
#246=DIRECTION('Vector Direction',(-0.707106781187,-1.32142279281E-015,0.707106781187)) ;
#258=DIRECTION('Axis2P3D Direction',(-7.1054273576E-015,2.36658271566E-030,1.)) ;
#259=DIRECTION('Axis2P3D XDirection',(-0.5,0.866025403784,-3.55614034311E-015)) ;
#284=DIRECTION('Axis2P3D Direction',(0.,0.,1.)) ;
#285=DIRECTION('Axis2P3D XDirection',(1.,0.,0.)) ;
#15=UNCERTAINTY_MEASURE_WITH_UNIT(LENGTH_MEASURE(0.005),#12,'distance_accuracy_value','CONFUSED CURVE UNCERTAINTY') ;
#18=AXIS2_PLACEMENT_3D(' ',#17,$,$) ;
#34=AXIS2_PLACEMENT_3D('Cylinder Axis2P3D',#31,#32,#33) ;
#47=AXIS2_PLACEMENT_3D('Circle Axis2P3D',#45,#46,$) ;
#61=AXIS2_PLACEMENT_3D('Circle Axis2P3D',#59,#60,$) ;
#73=AXIS2_PLACEMENT_3D('Circle Axis2P3D',#71,#72,$) ;
#78=AXIS2_PLACEMENT_3D('Circle Axis2P3D',#76,#77,$) ;
#91=AXIS2_PLACEMENT_3D('Plane Axis2P3D',#88,#89,#90) ;
#99=AXIS2_PLACEMENT_3D('Circle Axis2P3D',#97,#98,$) ;
#108=AXIS2_PLACEMENT_3D('Circle Axis2P3D',#106,#107,$) ;
#119=AXIS2_PLACEMENT_3D('Cone Axis2P3D',#116,#117,#118) ;
#130=AXIS2_PLACEMENT_3D('Circle Axis2P3D',#128,#129,$) ;
#150=AXIS2_PLACEMENT_3D('Cone Axis2P3D',#147,#148,#149) ;
#154=AXIS2_PLACEMENT_3D('Circle Axis2P3D',#152,#153,$) ;
#167=AXIS2_PLACEMENT_3D('Plane Axis2P3D',#164,#165,#166) ;
#175=AXIS2_PLACEMENT_3D('Circle Axis2P3D',#173,#174,$) ;
#184=AXIS2_PLACEMENT_3D('Circle Axis2P3D',#182,#183,$) ;
#195=AXIS2_PLACEMENT_3D('Cylinder Axis2P3D',#192,#193,#194) ;
#199=AXIS2_PLACEMENT_3D('Circle Axis2P3D',#197,#198,$) ;
#225=AXIS2_PLACEMENT_3D('Circle Axis2P3D',#223,#224,$) ;
#238=AXIS2_PLACEMENT_3D('Cone Axis2P3D',#235,#236,#237) ;
#260=AXIS2_PLACEMENT_3D('Cone Axis2P3D',#257,#258,#259) ;
#286=AXIS2_PLACEMENT_3D('Absolute Axis System',#283,#284,#285) ;
#39=LINE('Line',#36,#38) ;
#55=LINE('Line',#52,#54) ;
#124=LINE('Line',#121,#123) ;
#138=LINE('Line',#135,#137) ;
#209=LINE('Line',#206,#208) ;
#214=LINE('Line',#211,#213) ;
#243=LINE('Line',#240,#242) ;
#248=LINE('Line',#245,#247) ;
#48=CIRCLE('generated circle',#47,14.5) ;
#62=CIRCLE('generated circle',#61,14.5) ;
#74=CIRCLE('generated circle',#73,14.5) ;
#79=CIRCLE('generated circle',#78,14.5) ;
#100=CIRCLE('generated circle',#99,12.4) ;
#109=CIRCLE('generated circle',#108,12.4) ;
#131=CIRCLE('generated circle',#130,11.9) ;
#155=CIRCLE('generated circle',#154,11.9) ;
#176=CIRCLE('generated circle',#175,12.4) ;
#185=CIRCLE('generated circle',#184,12.4) ;
#200=CIRCLE('generated circle',#199,11.9) ;
#226=CIRCLE('generated circle',#225,11.9) ;
#92=PLANE('',#91) ;
#168=PLANE('',#167) ;
#35=CYLINDRICAL_SURFACE('generated cylinder',#34,14.5) ;
#196=CYLINDRICAL_SURFACE('generated cylinder',#195,11.9) ;
#120=CONICAL_SURFACE('Cone',#119,0.,0.785398163397) ;
#151=CONICAL_SURFACE('Cone',#150,0.,0.785398163397) ;
#239=CONICAL_SURFACE('Cone',#238,0.,0.785398163397) ;
#261=CONICAL_SURFACE('Cone',#260,0.,0.785398163397) ;
#114=FACE_BOUND('',#111,.T.) ;
#190=FACE_BOUND('',#187,.T.) ;
#44=EDGE_CURVE('',#41,#43,#39,.T.) ;
#51=EDGE_CURVE('',#41,#50,#48,.T.) ;
#58=EDGE_CURVE('',#50,#57,#55,.T.) ;
#63=EDGE_CURVE('',#43,#57,#62,.T.) ;
#75=EDGE_CURVE('',#50,#41,#74,.T.) ;
#80=EDGE_CURVE('',#57,#43,#79,.T.) ;
#105=EDGE_CURVE('',#102,#104,#100,.T.) ;
#110=EDGE_CURVE('',#104,#102,#109,.T.) ;
#127=EDGE_CURVE('',#102,#126,#124,.F.) ;
#134=EDGE_CURVE('',#126,#133,#131,.T.) ;
#139=EDGE_CURVE('',#104,#133,#138,.F.) ;
#156=EDGE_CURVE('',#133,#126,#155,.T.) ;
#181=EDGE_CURVE('',#178,#180,#176,.T.) ;
#186=EDGE_CURVE('',#180,#178,#185,.T.) ;
#205=EDGE_CURVE('',#202,#204,#200,.T.) ;
#210=EDGE_CURVE('',#126,#204,#209,.T.) ;
#215=EDGE_CURVE('',#133,#202,#214,.T.) ;
#227=EDGE_CURVE('',#204,#202,#226,.T.) ;
#244=EDGE_CURVE('',#204,#180,#243,.T.) ;
#249=EDGE_CURVE('',#202,#178,#248,.T.) ;
#30=CLOSED_SHELL('Closed Shell',(#70,#87,#115,#146,#163,#191,#222,#234,#256,#268)) ;
#292=CONSTRUCTIVE_GEOMETRY_REPRESENTATION('supplemental geometry',(#286),#16) ;
#282=SHAPE_REPRESENTATION_RELATIONSHIP(' ',' ',#19,#281) ;
#64=EDGE_LOOP('',(#65,#66,#67,#68)) ;
#81=EDGE_LOOP('',(#82,#83,#84,#85)) ;
#93=EDGE_LOOP('',(#94,#95)) ;
#111=EDGE_LOOP('',(#112,#113)) ;
#140=EDGE_LOOP('',(#141,#142,#143,#144)) ;
#157=EDGE_LOOP('',(#158,#159,#160,#161)) ;
#169=EDGE_LOOP('',(#170,#171)) ;
#187=EDGE_LOOP('',(#188,#189)) ;
#216=EDGE_LOOP('',(#217,#218,#219,#220)) ;
#228=EDGE_LOOP('',(#229,#230,#231,#232)) ;
#250=EDGE_LOOP('',(#251,#252,#253,#254)) ;
#262=EDGE_LOOP('',(#263,#264,#265,#266)) ;
#65=ORIENTED_EDGE('',*,*,#44,.F.) ;
#66=ORIENTED_EDGE('',*,*,#51,.T.) ;
#67=ORIENTED_EDGE('',*,*,#58,.T.) ;
#68=ORIENTED_EDGE('',*,*,#63,.F.) ;
#82=ORIENTED_EDGE('',*,*,#58,.F.) ;
#83=ORIENTED_EDGE('',*,*,#75,.T.) ;
#84=ORIENTED_EDGE('',*,*,#44,.T.) ;
#85=ORIENTED_EDGE('',*,*,#80,.F.) ;
#94=ORIENTED_EDGE('',*,*,#75,.F.) ;
#95=ORIENTED_EDGE('',*,*,#51,.F.) ;
#112=ORIENTED_EDGE('',*,*,#105,.T.) ;
#113=ORIENTED_EDGE('',*,*,#110,.T.) ;
#141=ORIENTED_EDGE('',*,*,#127,.T.) ;
#142=ORIENTED_EDGE('',*,*,#134,.T.) ;
#143=ORIENTED_EDGE('',*,*,#139,.F.) ;
#144=ORIENTED_EDGE('',*,*,#105,.F.) ;
#158=ORIENTED_EDGE('',*,*,#139,.T.) ;
#159=ORIENTED_EDGE('',*,*,#156,.T.) ;
#160=ORIENTED_EDGE('',*,*,#127,.F.) ;
#161=ORIENTED_EDGE('',*,*,#110,.F.) ;
#170=ORIENTED_EDGE('',*,*,#63,.T.) ;
#171=ORIENTED_EDGE('',*,*,#80,.T.) ;
#188=ORIENTED_EDGE('',*,*,#181,.F.) ;
#189=ORIENTED_EDGE('',*,*,#186,.F.) ;
#217=ORIENTED_EDGE('',*,*,#205,.T.) ;
#218=ORIENTED_EDGE('',*,*,#210,.F.) ;
#219=ORIENTED_EDGE('',*,*,#156,.F.) ;
#220=ORIENTED_EDGE('',*,*,#215,.T.) ;
#229=ORIENTED_EDGE('',*,*,#227,.T.) ;
#230=ORIENTED_EDGE('',*,*,#215,.F.) ;
#231=ORIENTED_EDGE('',*,*,#134,.F.) ;
#232=ORIENTED_EDGE('',*,*,#210,.T.) ;
#251=ORIENTED_EDGE('',*,*,#244,.T.) ;
#252=ORIENTED_EDGE('',*,*,#186,.T.) ;
#253=ORIENTED_EDGE('',*,*,#249,.F.) ;
#254=ORIENTED_EDGE('',*,*,#227,.F.) ;
#263=ORIENTED_EDGE('',*,*,#249,.T.) ;
#264=ORIENTED_EDGE('',*,*,#181,.T.) ;
#265=ORIENTED_EDGE('',*,*,#244,.F.) ;
#266=ORIENTED_EDGE('',*,*,#205,.F.) ;
#21=MANIFOLD_SOLID_BREP('PartBody',#30) ;
#41=VERTEX_POINT('',#40) ;
#43=VERTEX_POINT('',#42) ;
#50=VERTEX_POINT('',#49) ;
#57=VERTEX_POINT('',#56) ;
#102=VERTEX_POINT('',#101) ;
#104=VERTEX_POINT('',#103) ;
#126=VERTEX_POINT('',#125) ;
#133=VERTEX_POINT('',#132) ;
#178=VERTEX_POINT('',#177) ;
#180=VERTEX_POINT('',#179) ;
#202=VERTEX_POINT('',#201) ;
#204=VERTEX_POINT('',#203) ;
#281=ADVANCED_BREP_SHAPE_REPRESENTATION('NONE',(#21),#16) ;
#70=ADVANCED_FACE('PartBody',(#69),#35,.T.) ;
#87=ADVANCED_FACE('PartBody',(#86),#35,.T.) ;
#115=ADVANCED_FACE('PartBody',(#96,#114),#92,.F.) ;
#146=ADVANCED_FACE('PartBody',(#145),#120,.F.) ;
#163=ADVANCED_FACE('PartBody',(#162),#151,.F.) ;
#191=ADVANCED_FACE('PartBody',(#172,#190),#168,.T.) ;
#222=ADVANCED_FACE('PartBody',(#221),#196,.F.) ;
#234=ADVANCED_FACE('PartBody',(#233),#196,.F.) ;
#256=ADVANCED_FACE('PartBody',(#255),#239,.F.) ;
#268=ADVANCED_FACE('PartBody',(#267),#261,.F.) ;
#4=APPLICATION_PROTOCOL_DEFINITION('international standard','ap242_managed_model_based_3d_engineering',2014,#1) ;
#270=GEOMETRIC_ITEM_SPECIFIC_USAGE('','Solid',#269,#19,#21) ;
#22=COLOUR_RGB('Colour',0.823529411765,0.823529411765,1.) ;
#293=CONSTRUCTIVE_GEOMETRY_REPRESENTATION_RELATIONSHIP('supplemental geometry','',#19,#292) ;
#288=DRAUGHTING_PRE_DEFINED_COLOUR('white') ;
#287=DRAUGHTING_PRE_DEFINED_CURVE_FONT('continuous') ;
#69=FACE_OUTER_BOUND('',#64,.T.) ;
#86=FACE_OUTER_BOUND('',#81,.T.) ;
#96=FACE_OUTER_BOUND('',#93,.T.) ;
#145=FACE_OUTER_BOUND('',#140,.T.) ;
#162=FACE_OUTER_BOUND('',#157,.T.) ;
#172=FACE_OUTER_BOUND('',#169,.T.) ;
#221=FACE_OUTER_BOUND('',#216,.T.) ;
#233=FACE_OUTER_BOUND('',#228,.T.) ;
#255=FACE_OUTER_BOUND('',#250,.T.) ;
#267=FACE_OUTER_BOUND('',#262,.T.) ;
#9=PRODUCT_CATEGORY_RELATIONSHIP(' ',' ',#7,#8) ;
#6=PRODUCT_DEFINITION_FORMATION_WITH_SPECIFIED_SOURCE('',' ',#5,.NOT_KNOWN.) ;
#20=SHAPE_DEFINITION_REPRESENTATION(#11,#19) ;
#12=(LENGTH_UNIT()NAMED_UNIT(*)SI_UNIT(.MILLI.,.METRE.)) ;
#13=(NAMED_UNIT(*)PLANE_ANGLE_UNIT()SI_UNIT($,.RADIAN.)) ;
#14=(NAMED_UNIT(*)SI_UNIT($,.STERADIAN.)SOLID_ANGLE_UNIT()) ;
#16=(GEOMETRIC_REPRESENTATION_CONTEXT(3)GLOBAL_UNCERTAINTY_ASSIGNED_CONTEXT((#15))GLOBAL_UNIT_ASSIGNED_CONTEXT((#12,#13,#14))REPRESENTATION_CONTEXT(' ',' ')) ;
ENDSEC;
END-ISO-10303-21;
