ISO-10303-21;
HEADER;
FILE_DESCRIPTION(('CATIA V5 STEP Exchange'),'2;1');

FILE_NAME('C:\\Users\\son - lumiere\\Documents\\couronnes presse_catia\\porte_poincon.stp','2023-02-09T10:44:57+00:00',('none'),('none'),'CATIA Version 5 Release 21 GA (IN-10)','CATIA V5 STEP AP203','none');

FILE_SCHEMA(('CONFIG_CONTROL_DESIGN'));

ENDSEC;
/* file written by CATIA V5R21 */
DATA;
#5=PRODUCT('porte_poin\X2\00E7\X0\on','','',(#2)) ;
#1=APPLICATION_CONTEXT('configuration controlled 3D design of mechanical parts and assemblies') ;
#14=PRODUCT_DEFINITION('',' ',#6,#3) ;
#16=SECURITY_CLASSIFICATION(' ',' ',#15) ;
#15=SECURITY_CLASSIFICATION_LEVEL('unclassified') ;
#47=CARTESIAN_POINT(' ',(0.,0.,0.)) ;
#52=CARTESIAN_POINT('Axis2P3D Location',(0.,0.,0.)) ;
#57=CARTESIAN_POINT('Axis2P3D Location',(0.,-8.,0.)) ;
#61=CARTESIAN_POINT('Vertex',(0.,-16.,9.79685083058E-016)) ;
#63=CARTESIAN_POINT('Vertex',(0.,0.,0.)) ;
#66=CARTESIAN_POINT('Axis2P3D Location',(0.,-8.,0.)) ;
#76=CARTESIAN_POINT('Axis2P3D Location',(117.,0.,0.)) ;
#81=CARTESIAN_POINT('Axis2P3D Location',(117.,-8.,0.)) ;
#85=CARTESIAN_POINT('Vertex',(117.,0.,0.)) ;
#87=CARTESIAN_POINT('Vertex',(117.,-16.,9.79685083058E-016)) ;
#90=CARTESIAN_POINT('Axis2P3D Location',(117.,-8.,0.)) ;
#99=CARTESIAN_POINT('Axis2P3D Location',(117.,-8.,0.)) ;
#103=CARTESIAN_POINT('Vertex',(117.,-7.,0.)) ;
#105=CARTESIAN_POINT('Vertex',(117.,-9.,1.22460635382E-016)) ;
#108=CARTESIAN_POINT('Axis2P3D Location',(117.,-8.,0.)) ;
#118=CARTESIAN_POINT('Axis2P3D Location',(97.,0.,0.)) ;
#123=CARTESIAN_POINT('Axis2P3D Location',(97.,-8.,0.)) ;
#127=CARTESIAN_POINT('Vertex',(97.,-7.,0.)) ;
#129=CARTESIAN_POINT('Vertex',(97.,-9.,1.22460635382E-016)) ;
#132=CARTESIAN_POINT('Axis2P3D Location',(97.,-8.,0.)) ;
#142=CARTESIAN_POINT('Axis2P3D Location',(107.,-8.,0.)) ;
#148=CARTESIAN_POINT('Control Point',(108.846618531,-8.,-1.)) ;
#149=CARTESIAN_POINT('Control Point',(108.846618531,-7.68095022777,-1.)) ;
#150=CARTESIAN_POINT('Control Point',(108.918947237,-7.36462458649,-0.867815628752)) ;
#151=CARTESIAN_POINT('Control Point',(109.039716529,-7.13282773539,-0.637758899696)) ;
#152=CARTESIAN_POINT('Control Point',(109.1,-7.,-0.319049772226)) ;
#153=CARTESIAN_POINT('Control Point',(109.1,-7.,-1.11022302463E-016)) ;
#154=CARTESIAN_POINT('Vertex',(108.846618531,-8.,-1.)) ;
#156=CARTESIAN_POINT('Vertex',(109.1,-7.,0.)) ;
#159=CARTESIAN_POINT('Line Origine',(107.,-8.,-1.)) ;
#163=CARTESIAN_POINT('Vertex',(105.153381469,-8.,-1.)) ;
#167=CARTESIAN_POINT('Control Point',(105.153381469,-8.,-1.)) ;
#168=CARTESIAN_POINT('Control Point',(105.153381469,-7.68095022777,-1.)) ;
#169=CARTESIAN_POINT('Control Point',(105.081052763,-7.36462458647,-0.867815628728)) ;
#170=CARTESIAN_POINT('Control Point',(104.960283471,-7.13282773541,-0.637758899708)) ;
#171=CARTESIAN_POINT('Control Point',(104.9,-7.,-0.31904977223)) ;
#172=CARTESIAN_POINT('Control Point',(104.9,-7.,-1.11022302463E-016)) ;
#173=CARTESIAN_POINT('Vertex',(104.9,-7.,0.)) ;
#176=CARTESIAN_POINT('Line Origine',(107.,-7.,-2.44921270764E-016)) ;
#181=CARTESIAN_POINT('Line Origine',(107.,-9.,1.22460635382E-016)) ;
#186=CARTESIAN_POINT('Line Origine',(107.,-7.,-2.44921270764E-016)) ;
#203=CARTESIAN_POINT('Control Point',(105.153381469,-8.,1.)) ;
#204=CARTESIAN_POINT('Control Point',(105.153381469,-7.68095022778,1.)) ;
#205=CARTESIAN_POINT('Control Point',(105.081052763,-7.36462458653,0.867815628778)) ;
#206=CARTESIAN_POINT('Control Point',(104.960283471,-7.13282773538,0.637758899697)) ;
#207=CARTESIAN_POINT('Control Point',(104.9,-7.,0.319049772216)) ;
#208=CARTESIAN_POINT('Control Point',(104.9,-7.,1.11022302463E-016)) ;
#209=CARTESIAN_POINT('Vertex',(105.153381469,-8.,1.)) ;
#212=CARTESIAN_POINT('Line Origine',(107.,-8.,1.)) ;
#216=CARTESIAN_POINT('Vertex',(108.846618531,-8.,1.)) ;
#220=CARTESIAN_POINT('Control Point',(108.846618531,-8.,1.)) ;
#221=CARTESIAN_POINT('Control Point',(108.846618531,-7.68095022778,1.)) ;
#222=CARTESIAN_POINT('Control Point',(108.918947237,-7.36462458653,0.867815628785)) ;
#223=CARTESIAN_POINT('Control Point',(109.039716529,-7.13282773538,0.637758899686)) ;
#224=CARTESIAN_POINT('Control Point',(109.1,-7.,0.319049772216)) ;
#225=CARTESIAN_POINT('Control Point',(109.1,-7.,0.)) ;
#238=CARTESIAN_POINT('Axis2P3D Location',(58.5,-8.,0.)) ;
#243=CARTESIAN_POINT('Line Origine',(58.5,0.,-1.95937016612E-015)) ;
#247=CARTESIAN_POINT('Vertex',(109.1,0.,0.)) ;
#250=CARTESIAN_POINT('Line Origine',(58.5,-16.,9.79685083058E-016)) ;
#255=CARTESIAN_POINT('Line Origine',(58.5,0.,-1.95937016612E-015)) ;
#259=CARTESIAN_POINT('Vertex',(104.9,0.,0.)) ;
#263=CARTESIAN_POINT('Control Point',(104.9,-6.93889390391E-018,4.99600361081E-015)) ;
#264=CARTESIAN_POINT('Control Point',(104.9,2.02229116157E-016,-0.268367199164)) ;
#265=CARTESIAN_POINT('Control Point',(104.942869615,-0.0112532739979,-0.536733676579)) ;
#266=CARTESIAN_POINT('Control Point',(105.028630274,-0.0338115782665,-0.795147053183)) ;
#267=CARTESIAN_POINT('Control Point',(105.342269702,-0.110347457639,-1.39778166948)) ;
#268=CARTESIAN_POINT('Control Point',(105.869063731,-0.208473293146,-1.83936013444)) ;
#269=CARTESIAN_POINT('Control Point',(106.246842203,-0.260217440629,-2.02514726809)) ;
#270=CARTESIAN_POINT('Control Point',(107.066352053,-0.307021001621,-2.19747239226)) ;
#271=CARTESIAN_POINT('Control Point',(107.873057457,-0.246883586356,-1.97610900747)) ;
#272=CARTESIAN_POINT('Control Point',(108.23802425,-0.191147877614,-1.76888699793)) ;
#273=CARTESIAN_POINT('Control Point',(108.719024008,-0.0959176649353,-1.31474806151)) ;
#274=CARTESIAN_POINT('Control Point',(108.994256842,-0.0277851752239,-0.722576423725)) ;
#275=CARTESIAN_POINT('Control Point',(109.064756245,-0.00925148579419,-0.486659489585)) ;
#276=CARTESIAN_POINT('Control Point',(109.1,-4.80244209164E-017,-0.243330041472)) ;
#277=CARTESIAN_POINT('Control Point',(109.1,0.,-1.99840144433E-015)) ;
#289=CARTESIAN_POINT('Control Point',(104.9,3.46944695195E-018,0.)) ;
#290=CARTESIAN_POINT('Control Point',(104.9,-1.27054942088E-017,0.268367199155)) ;
#291=CARTESIAN_POINT('Control Point',(104.942869615,-0.0112532739973,0.536733676563)) ;
#292=CARTESIAN_POINT('Control Point',(105.028630274,-0.0338115782684,0.795147053198)) ;
#293=CARTESIAN_POINT('Control Point',(105.342269702,-0.110347457646,1.39778166953)) ;
#294=CARTESIAN_POINT('Control Point',(105.869063731,-0.208473293161,1.8393601345)) ;
#295=CARTESIAN_POINT('Control Point',(106.246842203,-0.260217440623,2.02514726807)) ;
#296=CARTESIAN_POINT('Control Point',(107.066352053,-0.307021001621,2.19747239226)) ;
#297=CARTESIAN_POINT('Control Point',(107.873057456,-0.246883586364,1.9761090075)) ;
#298=CARTESIAN_POINT('Control Point',(108.23802425,-0.191147877597,1.76888699785)) ;
#299=CARTESIAN_POINT('Control Point',(108.719024008,-0.0959176649292,1.31474806145)) ;
#300=CARTESIAN_POINT('Control Point',(108.994256842,-0.027785175224,0.722576423726)) ;
#301=CARTESIAN_POINT('Control Point',(109.064756245,-0.00925148579413,0.486659489583)) ;
#302=CARTESIAN_POINT('Control Point',(109.1,-1.93424386327E-017,0.243330041471)) ;
#303=CARTESIAN_POINT('Control Point',(109.1,-3.46944695195E-018,0.)) ;
#314=CARTESIAN_POINT('Axis2P3D Location',(0.,-8.,0.)) ;
#319=CARTESIAN_POINT('Axis2P3D Location',(107.,-8.,0.)) ;
#329=CARTESIAN_POINT('Axis2P3D Location',(107.,-4.,0.)) ;
#334=CARTESIAN_POINT('Line Origine',(104.9,-4.,0.)) ;
#339=CARTESIAN_POINT('Line Origine',(109.1,-4.,2.57167334303E-016)) ;
#353=CARTESIAN_POINT('Axis2P3D Location',(107.,-8.,0.)) ;
#53=DIRECTION('Axis2P3D Direction',(1.,0.,0.)) ;
#54=DIRECTION('Axis2P3D XDirection',(0.,1.,0.)) ;
#58=DIRECTION('Axis2P3D Direction',(1.,0.,0.)) ;
#67=DIRECTION('Axis2P3D Direction',(1.,0.,0.)) ;
#77=DIRECTION('Axis2P3D Direction',(1.,0.,0.)) ;
#78=DIRECTION('Axis2P3D XDirection',(0.,1.,0.)) ;
#82=DIRECTION('Axis2P3D Direction',(1.,0.,0.)) ;
#91=DIRECTION('Axis2P3D Direction',(1.,0.,0.)) ;
#100=DIRECTION('Axis2P3D Direction',(1.,0.,0.)) ;
#109=DIRECTION('Axis2P3D Direction',(1.,0.,0.)) ;
#119=DIRECTION('Axis2P3D Direction',(1.,0.,0.)) ;
#120=DIRECTION('Axis2P3D XDirection',(0.,1.,0.)) ;
#124=DIRECTION('Axis2P3D Direction',(1.,0.,0.)) ;
#133=DIRECTION('Axis2P3D Direction',(1.,0.,0.)) ;
#143=DIRECTION('Axis2P3D Direction',(1.,0.,0.)) ;
#144=DIRECTION('Axis2P3D XDirection',(0.,1.,0.)) ;
#160=DIRECTION('Vector Direction',(1.,0.,0.)) ;
#177=DIRECTION('Vector Direction',(1.,0.,0.)) ;
#182=DIRECTION('Vector Direction',(1.,0.,0.)) ;
#187=DIRECTION('Vector Direction',(1.,0.,0.)) ;
#213=DIRECTION('Vector Direction',(1.,0.,0.)) ;
#239=DIRECTION('Axis2P3D Direction',(1.,0.,0.)) ;
#240=DIRECTION('Axis2P3D XDirection',(0.,1.,0.)) ;
#244=DIRECTION('Vector Direction',(1.,0.,0.)) ;
#251=DIRECTION('Vector Direction',(1.,0.,0.)) ;
#256=DIRECTION('Vector Direction',(1.,0.,0.)) ;
#315=DIRECTION('Axis2P3D Direction',(0.,1.,0.)) ;
#316=DIRECTION('Axis2P3D XDirection',(-1.,0.,0.)) ;
#320=DIRECTION('Axis2P3D Direction',(0.,1.,0.)) ;
#330=DIRECTION('Axis2P3D Direction',(0.,1.,0.)) ;
#331=DIRECTION('Axis2P3D XDirection',(-1.,0.,0.)) ;
#335=DIRECTION('Vector Direction',(0.,1.,0.)) ;
#340=DIRECTION('Vector Direction',(0.,1.,0.)) ;
#354=DIRECTION('Axis2P3D Direction',(0.,1.,0.)) ;
#48=AXIS2_PLACEMENT_3D(' ',#47,$,$) ;
#55=AXIS2_PLACEMENT_3D('Plane Axis2P3D',#52,#53,#54) ;
#59=AXIS2_PLACEMENT_3D('Circle Axis2P3D',#57,#58,$) ;
#68=AXIS2_PLACEMENT_3D('Circle Axis2P3D',#66,#67,$) ;
#79=AXIS2_PLACEMENT_3D('Plane Axis2P3D',#76,#77,#78) ;
#83=AXIS2_PLACEMENT_3D('Circle Axis2P3D',#81,#82,$) ;
#92=AXIS2_PLACEMENT_3D('Circle Axis2P3D',#90,#91,$) ;
#101=AXIS2_PLACEMENT_3D('Circle Axis2P3D',#99,#100,$) ;
#110=AXIS2_PLACEMENT_3D('Circle Axis2P3D',#108,#109,$) ;
#121=AXIS2_PLACEMENT_3D('Plane Axis2P3D',#118,#119,#120) ;
#125=AXIS2_PLACEMENT_3D('Circle Axis2P3D',#123,#124,$) ;
#134=AXIS2_PLACEMENT_3D('Circle Axis2P3D',#132,#133,$) ;
#145=AXIS2_PLACEMENT_3D('Cylinder Axis2P3D',#142,#143,#144) ;
#241=AXIS2_PLACEMENT_3D('Cylinder Axis2P3D',#238,#239,#240) ;
#317=AXIS2_PLACEMENT_3D('Plane Axis2P3D',#314,#315,#316) ;
#321=AXIS2_PLACEMENT_3D('Circle Axis2P3D',#319,#320,$) ;
#332=AXIS2_PLACEMENT_3D('Cylinder Axis2P3D',#329,#330,#331) ;
#355=AXIS2_PLACEMENT_3D('Circle Axis2P3D',#353,#354,$) ;
#40=PRODUCT_DEFINITION_SHAPE(' ',' ',#14) ;
#31=APPROVAL_PERSON_ORGANIZATION(#25,#21,#19) ;
#25=PERSON_AND_ORGANIZATION(#22,#23) ;
#22=PERSON(' ',' ',' ',$,$,$) ;
#23=ORGANIZATION(' ',' ',' ') ;
#21=APPROVAL(#20,' ') ;
#20=APPROVAL_STATUS('not_yet_approved') ;
#19=APPROVAL_ROLE('APPROVER') ;
#13=DATE_AND_TIME(#11,#12) ;
#12=LOCAL_TIME(11,44,56.,#10) ;
#10=COORDINATED_UNIVERSAL_TIME_OFFSET(0,0,.AHEAD.) ;
#72=ORIENTED_EDGE('',*,*,#65,.F.) ;
#73=ORIENTED_EDGE('',*,*,#70,.F.) ;
#96=ORIENTED_EDGE('',*,*,#89,.T.) ;
#97=ORIENTED_EDGE('',*,*,#94,.T.) ;
#114=ORIENTED_EDGE('',*,*,#107,.F.) ;
#115=ORIENTED_EDGE('',*,*,#112,.F.) ;
#138=ORIENTED_EDGE('',*,*,#131,.T.) ;
#139=ORIENTED_EDGE('',*,*,#136,.T.) ;
#192=ORIENTED_EDGE('',*,*,#158,.F.) ;
#193=ORIENTED_EDGE('',*,*,#165,.T.) ;
#194=ORIENTED_EDGE('',*,*,#175,.T.) ;
#195=ORIENTED_EDGE('',*,*,#180,.T.) ;
#196=ORIENTED_EDGE('',*,*,#136,.F.) ;
#197=ORIENTED_EDGE('',*,*,#185,.F.) ;
#198=ORIENTED_EDGE('',*,*,#112,.T.) ;
#199=ORIENTED_EDGE('',*,*,#190,.T.) ;
#228=ORIENTED_EDGE('',*,*,#211,.F.) ;
#229=ORIENTED_EDGE('',*,*,#218,.F.) ;
#230=ORIENTED_EDGE('',*,*,#226,.T.) ;
#231=ORIENTED_EDGE('',*,*,#190,.F.) ;
#232=ORIENTED_EDGE('',*,*,#107,.T.) ;
#233=ORIENTED_EDGE('',*,*,#185,.T.) ;
#234=ORIENTED_EDGE('',*,*,#131,.F.) ;
#235=ORIENTED_EDGE('',*,*,#180,.F.) ;
#280=ORIENTED_EDGE('',*,*,#249,.T.) ;
#281=ORIENTED_EDGE('',*,*,#94,.F.) ;
#282=ORIENTED_EDGE('',*,*,#254,.F.) ;
#283=ORIENTED_EDGE('',*,*,#65,.T.) ;
#284=ORIENTED_EDGE('',*,*,#261,.T.) ;
#285=ORIENTED_EDGE('',*,*,#278,.T.) ;
#306=ORIENTED_EDGE('',*,*,#261,.F.) ;
#307=ORIENTED_EDGE('',*,*,#70,.T.) ;
#308=ORIENTED_EDGE('',*,*,#254,.T.) ;
#309=ORIENTED_EDGE('',*,*,#89,.F.) ;
#310=ORIENTED_EDGE('',*,*,#249,.F.) ;
#311=ORIENTED_EDGE('',*,*,#304,.F.) ;
#325=ORIENTED_EDGE('',*,*,#323,.T.) ;
#326=ORIENTED_EDGE('',*,*,#218,.T.) ;
#345=ORIENTED_EDGE('',*,*,#323,.F.) ;
#346=ORIENTED_EDGE('',*,*,#211,.T.) ;
#347=ORIENTED_EDGE('',*,*,#338,.F.) ;
#348=ORIENTED_EDGE('',*,*,#304,.T.) ;
#349=ORIENTED_EDGE('',*,*,#343,.T.) ;
#350=ORIENTED_EDGE('',*,*,#226,.F.) ;
#359=ORIENTED_EDGE('',*,*,#357,.F.) ;
#360=ORIENTED_EDGE('',*,*,#158,.T.) ;
#361=ORIENTED_EDGE('',*,*,#343,.F.) ;
#362=ORIENTED_EDGE('',*,*,#278,.F.) ;
#363=ORIENTED_EDGE('',*,*,#338,.T.) ;
#364=ORIENTED_EDGE('',*,*,#175,.F.) ;
#368=ORIENTED_EDGE('',*,*,#357,.T.) ;
#369=ORIENTED_EDGE('',*,*,#165,.F.) ;
#116=FACE_BOUND('',#113,.T.) ;
#51=CLOSED_SHELL('Closed Shell',(#75,#117,#141,#201,#237,#287,#313,#328,#352,#366,#371)) ;
#161=VECTOR('Line Direction',#160,1.) ;
#178=VECTOR('Line Direction',#177,1.) ;
#183=VECTOR('Line Direction',#182,1.) ;
#188=VECTOR('Line Direction',#187,1.) ;
#214=VECTOR('Line Direction',#213,1.) ;
#245=VECTOR('Line Direction',#244,1.) ;
#252=VECTOR('Line Direction',#251,1.) ;
#257=VECTOR('Line Direction',#256,1.) ;
#336=VECTOR('Line Direction',#335,1.) ;
#341=VECTOR('Line Direction',#340,1.) ;
#373=ADVANCED_BREP_SHAPE_REPRESENTATION('NONE',(#372),#46) ;
#49=SHAPE_REPRESENTATION(' ',(#48),#46) ;
#75=ADVANCED_FACE('Corps principal',(#74),#56,.F.) ;
#117=ADVANCED_FACE('Corps principal',(#98,#116),#80,.T.) ;
#141=ADVANCED_FACE('Corps principal',(#140),#122,.T.) ;
#201=ADVANCED_FACE('Corps principal',(#200),#146,.F.) ;
#237=ADVANCED_FACE('Corps principal',(#236),#146,.F.) ;
#287=ADVANCED_FACE('Corps principal',(#286),#242,.T.) ;
#313=ADVANCED_FACE('Corps principal',(#312),#242,.T.) ;
#328=ADVANCED_FACE('Corps principal',(#327),#318,.T.) ;
#352=ADVANCED_FACE('Corps principal',(#351),#333,.F.) ;
#366=ADVANCED_FACE('Corps principal',(#365),#333,.F.) ;
#371=ADVANCED_FACE('Corps principal',(#370),#318,.T.) ;
#4=APPLICATION_PROTOCOL_DEFINITION('international standard','config_control_design',1994,#1) ;
#32=APPROVAL_DATE_TIME(#13,#21) ;
#147=B_SPLINE_CURVE_WITH_KNOTS('',5,(#148,#149,#150,#151,#152,#153),.UNSPECIFIED.,.F.,.U.,(6,6),(0.,2.25602257477),.UNSPECIFIED.) ;
#166=B_SPLINE_CURVE_WITH_KNOTS('',5,(#167,#168,#169,#170,#171,#172),.UNSPECIFIED.,.F.,.U.,(6,6),(0.,2.2560225748),.UNSPECIFIED.) ;
#202=B_SPLINE_CURVE_WITH_KNOTS('',5,(#203,#204,#205,#206,#207,#208),.UNSPECIFIED.,.F.,.U.,(6,6),(0.,2.2560225747),.UNSPECIFIED.) ;
#219=B_SPLINE_CURVE_WITH_KNOTS('',5,(#220,#221,#222,#223,#224,#225),.UNSPECIFIED.,.F.,.U.,(6,6),(0.,2.2560225747),.UNSPECIFIED.) ;
#262=B_SPLINE_CURVE_WITH_KNOTS('',5,(#263,#264,#265,#266,#267,#268,#269,#270,#271,#272,#273,#274,#275,#276,#277),.UNSPECIFIED.,.F.,.U.,(6,3,3,3,6),(0.,1.89764266377,4.77518754086,7.64998843011,9.37059165402),.UNSPECIFIED.) ;
#288=B_SPLINE_CURVE_WITH_KNOTS('',5,(#289,#290,#291,#292,#293,#294,#295,#296,#297,#298,#299,#300,#301,#302,#303),.UNSPECIFIED.,.F.,.U.,(6,3,3,3,6),(0.,1.89764266371,4.77518754115,7.64998842998,9.37059165388),.UNSPECIFIED.) ;
#372=MANIFOLD_SOLID_BREP('Corps principal',#51) ;
#11=CALENDAR_DATE(2023,9,2) ;
#30=CC_DESIGN_APPROVAL(#21,(#16,#6,#14)) ;
#18=CC_DESIGN_DATE_AND_TIME_ASSIGNMENT(#13,#17,(#16)) ;
#29=CC_DESIGN_DATE_AND_TIME_ASSIGNMENT(#13,#28,(#14)) ;
#17=DATE_TIME_ROLE('classification_date') ;
#28=DATE_TIME_ROLE('creation_date') ;
#27=CC_DESIGN_PERSON_AND_ORGANIZATION_ASSIGNMENT(#25,#26,(#16)) ;
#33=CC_DESIGN_PERSON_AND_ORGANIZATION_ASSIGNMENT(#25,#34,(#6)) ;
#35=CC_DESIGN_PERSON_AND_ORGANIZATION_ASSIGNMENT(#25,#36,(#6,#14)) ;
#37=CC_DESIGN_PERSON_AND_ORGANIZATION_ASSIGNMENT(#25,#38,(#5)) ;
#26=PERSON_AND_ORGANIZATION_ROLE('classification_officer') ;
#34=PERSON_AND_ORGANIZATION_ROLE('design_supplier') ;
#36=PERSON_AND_ORGANIZATION_ROLE('creator') ;
#38=PERSON_AND_ORGANIZATION_ROLE('design_owner') ;
#39=CC_DESIGN_SECURITY_CLASSIFICATION(#16,(#6)) ;
#60=CIRCLE('generated circle',#59,8.) ;
#69=CIRCLE('generated circle',#68,8.) ;
#84=CIRCLE('generated circle',#83,8.) ;
#93=CIRCLE('generated circle',#92,8.) ;
#102=CIRCLE('generated circle',#101,1.) ;
#111=CIRCLE('generated circle',#110,1.) ;
#126=CIRCLE('generated circle',#125,1.) ;
#135=CIRCLE('generated circle',#134,1.) ;
#322=CIRCLE('generated circle',#321,2.1) ;
#356=CIRCLE('generated circle',#355,2.1) ;
#374=SHAPE_REPRESENTATION_RELATIONSHIP(' ',' ',#49,#373) ;
#146=CYLINDRICAL_SURFACE('generated cylinder',#145,1.) ;
#242=CYLINDRICAL_SURFACE('generated cylinder',#241,8.) ;
#333=CYLINDRICAL_SURFACE('generated cylinder',#332,2.1) ;
#3=DESIGN_CONTEXT(' ',#1,'design') ;
#65=EDGE_CURVE('',#62,#64,#60,.T.) ;
#70=EDGE_CURVE('',#64,#62,#69,.T.) ;
#89=EDGE_CURVE('',#86,#88,#84,.T.) ;
#94=EDGE_CURVE('',#88,#86,#93,.T.) ;
#107=EDGE_CURVE('',#104,#106,#102,.T.) ;
#112=EDGE_CURVE('',#106,#104,#111,.T.) ;
#131=EDGE_CURVE('',#128,#130,#126,.T.) ;
#136=EDGE_CURVE('',#130,#128,#135,.T.) ;
#158=EDGE_CURVE('',#155,#157,#147,.T.) ;
#165=EDGE_CURVE('',#155,#164,#162,.F.) ;
#175=EDGE_CURVE('',#164,#174,#166,.T.) ;
#180=EDGE_CURVE('',#174,#128,#179,.F.) ;
#185=EDGE_CURVE('',#106,#130,#184,.F.) ;
#190=EDGE_CURVE('',#104,#157,#189,.F.) ;
#211=EDGE_CURVE('',#210,#174,#202,.T.) ;
#218=EDGE_CURVE('',#217,#210,#215,.F.) ;
#226=EDGE_CURVE('',#217,#157,#219,.T.) ;
#249=EDGE_CURVE('',#248,#86,#246,.T.) ;
#254=EDGE_CURVE('',#62,#88,#253,.T.) ;
#261=EDGE_CURVE('',#64,#260,#258,.T.) ;
#278=EDGE_CURVE('',#260,#248,#262,.T.) ;
#304=EDGE_CURVE('',#260,#248,#288,.T.) ;
#323=EDGE_CURVE('',#210,#217,#322,.T.) ;
#338=EDGE_CURVE('',#260,#174,#337,.F.) ;
#343=EDGE_CURVE('',#248,#157,#342,.F.) ;
#357=EDGE_CURVE('',#155,#164,#356,.T.) ;
#71=EDGE_LOOP('',(#72,#73)) ;
#95=EDGE_LOOP('',(#96,#97)) ;
#113=EDGE_LOOP('',(#114,#115)) ;
#137=EDGE_LOOP('',(#138,#139)) ;
#191=EDGE_LOOP('',(#192,#193,#194,#195,#196,#197,#198,#199)) ;
#227=EDGE_LOOP('',(#228,#229,#230,#231,#232,#233,#234,#235)) ;
#279=EDGE_LOOP('',(#280,#281,#282,#283,#284,#285)) ;
#305=EDGE_LOOP('',(#306,#307,#308,#309,#310,#311)) ;
#324=EDGE_LOOP('',(#325,#326)) ;
#344=EDGE_LOOP('',(#345,#346,#347,#348,#349,#350)) ;
#358=EDGE_LOOP('',(#359,#360,#361,#362,#363,#364)) ;
#367=EDGE_LOOP('',(#368,#369)) ;
#74=FACE_OUTER_BOUND('',#71,.T.) ;
#98=FACE_OUTER_BOUND('',#95,.T.) ;
#140=FACE_OUTER_BOUND('',#137,.T.) ;
#200=FACE_OUTER_BOUND('',#191,.T.) ;
#236=FACE_OUTER_BOUND('',#227,.T.) ;
#286=FACE_OUTER_BOUND('',#279,.T.) ;
#312=FACE_OUTER_BOUND('',#305,.T.) ;
#327=FACE_OUTER_BOUND('',#324,.T.) ;
#351=FACE_OUTER_BOUND('',#344,.T.) ;
#365=FACE_OUTER_BOUND('',#358,.T.) ;
#370=FACE_OUTER_BOUND('',#367,.T.) ;
#45=UNCERTAINTY_MEASURE_WITH_UNIT(LENGTH_MEASURE(0.005),#41,'distance_accuracy_value','CONFUSED CURVE UNCERTAINTY') ;
#162=LINE('Line',#159,#161) ;
#179=LINE('Line',#176,#178) ;
#184=LINE('Line',#181,#183) ;
#189=LINE('Line',#186,#188) ;
#215=LINE('Line',#212,#214) ;
#246=LINE('Line',#243,#245) ;
#253=LINE('Line',#250,#252) ;
#258=LINE('Line',#255,#257) ;
#337=LINE('Line',#334,#336) ;
#342=LINE('Line',#339,#341) ;
#2=MECHANICAL_CONTEXT(' ',#1,'mechanical') ;
#24=PERSONAL_ADDRESS(' ',' ',' ',' ',' ',' ',' ',' ',' ',' ',' ',' ',(#22),' ') ;
#56=PLANE('',#55) ;
#80=PLANE('',#79) ;
#122=PLANE('',#121) ;
#318=PLANE('',#317) ;
#43=PLANE_ANGLE_MEASURE_WITH_UNIT(PLANE_ANGLE_MEASURE(0.0174532925199),#42) ;
#7=PRODUCT_CATEGORY('part',$) ;
#9=PRODUCT_CATEGORY_RELATIONSHIP(' ',' ',#7,#8) ;
#6=PRODUCT_DEFINITION_FORMATION_WITH_SPECIFIED_SOURCE('',' ',#5,.NOT_KNOWN.) ;
#8=PRODUCT_RELATED_PRODUCT_CATEGORY('detail',$,(#5)) ;
#50=SHAPE_DEFINITION_REPRESENTATION(#40,#49) ;
#62=VERTEX_POINT('',#61) ;
#64=VERTEX_POINT('',#63) ;
#86=VERTEX_POINT('',#85) ;
#88=VERTEX_POINT('',#87) ;
#104=VERTEX_POINT('',#103) ;
#106=VERTEX_POINT('',#105) ;
#128=VERTEX_POINT('',#127) ;
#130=VERTEX_POINT('',#129) ;
#155=VERTEX_POINT('',#154) ;
#157=VERTEX_POINT('',#156) ;
#164=VERTEX_POINT('',#163) ;
#174=VERTEX_POINT('',#173) ;
#210=VERTEX_POINT('',#209) ;
#217=VERTEX_POINT('',#216) ;
#248=VERTEX_POINT('',#247) ;
#260=VERTEX_POINT('',#259) ;
#41=(LENGTH_UNIT()NAMED_UNIT(*)SI_UNIT(.MILLI.,.METRE.)) ;
#42=(NAMED_UNIT(*)PLANE_ANGLE_UNIT()SI_UNIT($,.RADIAN.)) ;
#44=(NAMED_UNIT(*)SI_UNIT($,.STERADIAN.)SOLID_ANGLE_UNIT()) ;
#46=(GEOMETRIC_REPRESENTATION_CONTEXT(3)GLOBAL_UNCERTAINTY_ASSIGNED_CONTEXT((#45))GLOBAL_UNIT_ASSIGNED_CONTEXT((#41,#42,#44))REPRESENTATION_CONTEXT(' ',' ')) ;
ENDSEC;
END-ISO-10303-21;
