ISO-10303-21;
HEADER;

/* File generated by Shapr3D Version 3.0 */

FILE_DESCRIPTION(('HOOPS Exchange Step'),'2;1');

FILE_NAME('C:\\Users\\andre\\AppData\\Local\\Packages\\Shapr3D.Shapr3D_dvv5p1vgwv6mp\\TempState\\export\\temp_export',
'2023-02-08T10:06:32+01:00',
('andre'),
('Shapr3D Limited'),
'HOOPS Exchange 2022.2',
'Shapr3D',
'Authorized');

FILE_SCHEMA( ('AUTOMOTIVE_DESIGN { 1 0 10303 214 1 1 1 1 }') );

ENDSEC;

DATA;
#3=(NAMED_UNIT(*)PLANE_ANGLE_UNIT()SI_UNIT($,.RADIAN.));
#4=PLANE_ANGLE_MEASURE_WITH_UNIT(PLANE_ANGLE_MEASURE(0.0174532925),#3);
#5=(CONVERSION_BASED_UNIT('DEGREE',#4)NAMED_UNIT(#6)PLANE_ANGLE_UNIT());
#6=DIMENSIONAL_EXPONENTS(0.,0.,0.,0.,0.,0.,0.);
#7=(NAMED_UNIT(*)SI_UNIT($,.STERADIAN.)SOLID_ANGLE_UNIT());
#8=(LENGTH_UNIT()NAMED_UNIT(*)SI_UNIT(.MILLI.,.METRE.));
#9=UNCERTAINTY_MEASURE_WITH_UNIT(LENGTH_MEASURE(1.000000E-05),#8,'DISTANCE_ACCURACY_VALUE','Maximum Tolerance applied to model');
#10=(GEOMETRIC_REPRESENTATION_CONTEXT(3)GLOBAL_UNCERTAINTY_ASSIGNED_CONTEXT((#9))GLOBAL_UNIT_ASSIGNED_CONTEXT((#8,#5,#7))REPRESENTATION_CONTEXT('','root'));
#12=CARTESIAN_POINT('',(0.,0.,0.));
#13=DIRECTION('',(0.,0.,1.));
#14=DIRECTION('',(1.,0.,0.));
#15=AXIS2_PLACEMENT_3D('',#12,#13,#14);
#27=CARTESIAN_POINT('',(-14.45,0.,40.4));
#28=DIRECTION('',(0.,0.,-1.));
#29=DIRECTION('',(-1.,0.,0.));
#30=AXIS2_PLACEMENT_3D('',#27,#28,#29);
#31=PLANE('',#30);
#32=CARTESIAN_POINT('',(-15.7,0.,40.4));
#33=VERTEX_POINT('',#32);
#34=CARTESIAN_POINT('',(0.,0.,40.4));
#35=DIRECTION('',(-0.,-0.,1.));
#36=DIRECTION('',(-1.,0.,0.));
#37=AXIS2_PLACEMENT_3D('',#34,#35,#36);
#38=CIRCLE('',#37,15.7);
#39=EDGE_CURVE('',#33,#33,#38,.T.);
#40=ORIENTED_EDGE('',*,*,#39,.T.);
#41=EDGE_LOOP('',(#40));
#42=FACE_BOUND('',#41,.T.);
#43=CARTESIAN_POINT('',(-13.2,-0.,40.4));
#44=VERTEX_POINT('',#43);
#45=CARTESIAN_POINT('',(13.2,0.,40.4));
#46=VERTEX_POINT('',#45);
#47=CARTESIAN_POINT('',(0.,0.,40.4));
#48=DIRECTION('',(0.,0.,-1.));
#49=DIRECTION('',(-1.,0.,0.));
#50=AXIS2_PLACEMENT_3D('',#47,#48,#49);
#51=CIRCLE('',#50,13.2);
#52=EDGE_CURVE('',#44,#46,#51,.T.);
#53=ORIENTED_EDGE('',*,*,#52,.T.);
#54=CARTESIAN_POINT('',(0.,0.,40.4));
#55=DIRECTION('',(0.,0.,-1.));
#56=DIRECTION('',(-1.,0.,0.));
#57=AXIS2_PLACEMENT_3D('',#54,#55,#56);
#58=CIRCLE('',#57,13.2);
#59=EDGE_CURVE('',#46,#44,#58,.T.);
#60=ORIENTED_EDGE('',*,*,#59,.T.);
#61=EDGE_LOOP('',(#53,#60));
#62=FACE_BOUND('',#61,.T.);
#63=ADVANCED_FACE('',(#42,#62),#31,.F.);
#64=CARTESIAN_POINT('',(0.,0.,-44.6));
#65=DIRECTION('',(0.,0.,1.));
#66=DIRECTION('',(1.,0.,-0.));
#67=AXIS2_PLACEMENT_3D('',#64,#65,#66);
#68=CYLINDRICAL_SURFACE('',#67,13.);
#69=CARTESIAN_POINT('',(13.,0.,40.2));
#70=VERTEX_POINT('',#69);
#71=CARTESIAN_POINT('',(13.,-0.,-19.4));
#72=VERTEX_POINT('',#71);
#73=CARTESIAN_POINT('',(13.,0.,40.2));
#74=DIRECTION('',(-0.,-0.,-1.));
#75=VECTOR('',#74,59.6);
#76=LINE('',#73,#75);
#77=EDGE_CURVE('',#70,#72,#76,.T.);
#78=ORIENTED_EDGE('',*,*,#77,.F.);
#79=CARTESIAN_POINT('',(-13.,-0.,40.2));
#80=VERTEX_POINT('',#79);
#81=CARTESIAN_POINT('',(0.,0.,40.2));
#82=DIRECTION('',(-0.,-0.,1.));
#83=DIRECTION('',(-1.,0.,0.));
#84=AXIS2_PLACEMENT_3D('',#81,#82,#83);
#85=CIRCLE('',#84,13.);
#86=EDGE_CURVE('',#70,#80,#85,.T.);
#87=ORIENTED_EDGE('',*,*,#86,.T.);
#88=CARTESIAN_POINT('',(0.,0.,40.2));
#89=DIRECTION('',(-0.,-0.,1.));
#90=DIRECTION('',(-1.,0.,0.));
#91=AXIS2_PLACEMENT_3D('',#88,#89,#90);
#92=CIRCLE('',#91,13.);
#93=EDGE_CURVE('',#80,#70,#92,.T.);
#94=ORIENTED_EDGE('',*,*,#93,.T.);
#95=ORIENTED_EDGE('',*,*,#77,.T.);
#96=CARTESIAN_POINT('',(-13.,0.,-19.4));
#97=VERTEX_POINT('',#96);
#98=CARTESIAN_POINT('',(0.,0.,-19.4));
#99=DIRECTION('',(-0.,-0.,-1.));
#100=DIRECTION('',(1.,0.,-0.));
#101=AXIS2_PLACEMENT_3D('',#98,#99,#100);
#102=CIRCLE('',#101,13.);
#103=EDGE_CURVE('',#72,#97,#102,.T.);
#104=ORIENTED_EDGE('',*,*,#103,.T.);
#105=CARTESIAN_POINT('',(0.,0.,-19.4));
#106=DIRECTION('',(-0.,-0.,-1.));
#107=DIRECTION('',(1.,0.,-0.));
#108=AXIS2_PLACEMENT_3D('',#105,#106,#107);
#109=CIRCLE('',#108,13.);
#110=EDGE_CURVE('',#97,#72,#109,.T.);
#111=ORIENTED_EDGE('',*,*,#110,.T.);
#112=EDGE_LOOP('',(#78,#87,#94,#95,#104,#111));
#113=FACE_BOUND('',#112,.T.);
#114=ADVANCED_FACE('',(#113),#68,.F.);
#115=CARTESIAN_POINT('',(-14.45,0.,-19.6));
#116=DIRECTION('',(0.,0.,1.));
#117=DIRECTION('',(1.,0.,0.));
#118=AXIS2_PLACEMENT_3D('',#115,#116,#117);
#119=PLANE('',#118);
#120=CARTESIAN_POINT('',(15.7,-0.,-19.6));
#121=VERTEX_POINT('',#120);
#122=CARTESIAN_POINT('',(0.,0.,-19.6));
#123=DIRECTION('',(-0.,-0.,-1.));
#124=DIRECTION('',(1.,0.,-0.));
#125=AXIS2_PLACEMENT_3D('',#122,#123,#124);
#126=CIRCLE('',#125,15.7);
#127=EDGE_CURVE('',#121,#121,#126,.T.);
#128=ORIENTED_EDGE('',*,*,#127,.T.);
#129=EDGE_LOOP('',(#128));
#130=FACE_BOUND('',#129,.T.);
#131=CARTESIAN_POINT('',(13.2,-0.,-19.6));
#132=VERTEX_POINT('',#131);
#133=CARTESIAN_POINT('',(-13.2,0.,-19.6));
#134=VERTEX_POINT('',#133);
#135=CARTESIAN_POINT('',(0.,0.,-19.6));
#136=DIRECTION('',(0.,0.,1.));
#137=DIRECTION('',(1.,0.,-0.));
#138=AXIS2_PLACEMENT_3D('',#135,#136,#137);
#139=CIRCLE('',#138,13.2);
#140=EDGE_CURVE('',#132,#134,#139,.T.);
#141=ORIENTED_EDGE('',*,*,#140,.T.);
#142=CARTESIAN_POINT('',(0.,0.,-19.6));
#143=DIRECTION('',(0.,0.,1.));
#144=DIRECTION('',(1.,0.,-0.));
#145=AXIS2_PLACEMENT_3D('',#142,#143,#144);
#146=CIRCLE('',#145,13.2);
#147=EDGE_CURVE('',#134,#132,#146,.T.);
#148=ORIENTED_EDGE('',*,*,#147,.T.);
#149=EDGE_LOOP('',(#141,#148));
#150=FACE_BOUND('',#149,.T.);
#151=ADVANCED_FACE('',(#130,#150),#119,.F.);
#152=CARTESIAN_POINT('',(0.,0.,-44.6));
#153=DIRECTION('',(0.,0.,1.));
#154=DIRECTION('',(1.,0.,-0.));
#155=AXIS2_PLACEMENT_3D('',#152,#153,#154);
#156=CYLINDRICAL_SURFACE('',#155,15.9);
#157=CARTESIAN_POINT('',(15.9,0.,40.2));
#158=VERTEX_POINT('',#157);
#159=CARTESIAN_POINT('',(15.9,-0.,-19.4));
#160=VERTEX_POINT('',#159);
#161=CARTESIAN_POINT('',(15.9,0.,40.2));
#162=DIRECTION('',(-0.,-0.,-1.));
#163=VECTOR('',#162,59.6);
#164=LINE('',#161,#163);
#165=EDGE_CURVE('',#158,#160,#164,.T.);
#166=ORIENTED_EDGE('',*,*,#165,.T.);
#167=CARTESIAN_POINT('',(0.,0.,-19.4));
#168=DIRECTION('',(0.,0.,1.));
#169=DIRECTION('',(1.,0.,-0.));
#170=AXIS2_PLACEMENT_3D('',#167,#168,#169);
#171=CIRCLE('',#170,15.9);
#172=EDGE_CURVE('',#160,#160,#171,.T.);
#173=ORIENTED_EDGE('',*,*,#172,.T.);
#174=ORIENTED_EDGE('',*,*,#165,.F.);
#175=CARTESIAN_POINT('',(-15.9,-0.,40.2));
#176=VERTEX_POINT('',#175);
#177=CARTESIAN_POINT('',(0.,0.,40.2));
#178=DIRECTION('',(0.,0.,-1.));
#179=DIRECTION('',(-1.,0.,0.));
#180=AXIS2_PLACEMENT_3D('',#177,#178,#179);
#181=CIRCLE('',#180,15.9);
#182=EDGE_CURVE('',#158,#176,#181,.T.);
#183=ORIENTED_EDGE('',*,*,#182,.T.);
#184=CARTESIAN_POINT('',(0.,0.,40.2));
#185=DIRECTION('',(0.,0.,-1.));
#186=DIRECTION('',(-1.,0.,0.));
#187=AXIS2_PLACEMENT_3D('',#184,#185,#186);
#188=CIRCLE('',#187,15.9);
#189=EDGE_CURVE('',#176,#158,#188,.T.);
#190=ORIENTED_EDGE('',*,*,#189,.T.);
#191=EDGE_LOOP('',(#166,#173,#174,#183,#190));
#192=FACE_BOUND('',#191,.T.);
#193=ADVANCED_FACE('',(#192),#156,.T.);
#194=CARTESIAN_POINT('',(0.,0.,-19.6));
#195=DIRECTION('',(0.,0.,-1.));
#196=DIRECTION('',(-1.,0.,0.));
#197=AXIS2_PLACEMENT_3D('',#194,#195,#196);
#198=CONICAL_SURFACE('',#197,13.2,45.);
#199=CARTESIAN_POINT('',(-13.2,0.,-19.6));
#200=DIRECTION('',(0.707106781,-0.,0.707106781));
#201=VECTOR('',#200,0.282842712);
#202=LINE('',#199,#201);
#203=EDGE_CURVE('',#134,#97,#202,.T.);
#204=ORIENTED_EDGE('',*,*,#203,.F.);
#205=ORIENTED_EDGE('',*,*,#140,.F.);
#206=ORIENTED_EDGE('',*,*,#147,.F.);
#207=ORIENTED_EDGE('',*,*,#203,.T.);
#208=ORIENTED_EDGE('',*,*,#103,.F.);
#209=ORIENTED_EDGE('',*,*,#110,.F.);
#210=EDGE_LOOP('',(#204,#205,#206,#207,#208,#209));
#211=FACE_BOUND('',#210,.T.);
#212=ADVANCED_FACE('',(#211),#198,.F.);
#213=CARTESIAN_POINT('',(0.,0.,-19.6));
#214=DIRECTION('',(0.,0.,1.));
#215=DIRECTION('',(1.,0.,-0.));
#216=AXIS2_PLACEMENT_3D('',#213,#214,#215);
#217=CONICAL_SURFACE('',#216,15.7,45.);
#218=CARTESIAN_POINT('',(15.9,0.,-19.4));
#219=DIRECTION('',(-0.707106781,-0.,-0.707106781));
#220=VECTOR('',#219,0.282842712);
#221=LINE('',#218,#220);
#222=EDGE_CURVE('',#160,#121,#221,.T.);
#223=ORIENTED_EDGE('',*,*,#222,.T.);
#224=ORIENTED_EDGE('',*,*,#127,.F.);
#225=ORIENTED_EDGE('',*,*,#222,.F.);
#226=ORIENTED_EDGE('',*,*,#172,.F.);
#227=EDGE_LOOP('',(#223,#224,#225,#226));
#228=FACE_BOUND('',#227,.T.);
#229=ADVANCED_FACE('',(#228),#217,.T.);
#230=CARTESIAN_POINT('',(0.,0.,40.2));
#231=DIRECTION('',(0.,0.,1.));
#232=DIRECTION('',(1.,0.,-0.));
#233=AXIS2_PLACEMENT_3D('',#230,#231,#232);
#234=CONICAL_SURFACE('',#233,13.,45.);
#235=CARTESIAN_POINT('',(13.2,0.,40.4));
#236=DIRECTION('',(-0.707106781,-0.,-0.707106781));
#237=VECTOR('',#236,0.282842712);
#238=LINE('',#235,#237);
#239=EDGE_CURVE('',#46,#70,#238,.T.);
#240=ORIENTED_EDGE('',*,*,#239,.F.);
#241=ORIENTED_EDGE('',*,*,#52,.F.);
#242=ORIENTED_EDGE('',*,*,#59,.F.);
#243=ORIENTED_EDGE('',*,*,#239,.T.);
#244=ORIENTED_EDGE('',*,*,#93,.F.);
#245=ORIENTED_EDGE('',*,*,#86,.F.);
#246=EDGE_LOOP('',(#240,#241,#242,#243,#244,#245));
#247=FACE_BOUND('',#246,.T.);
#248=ADVANCED_FACE('',(#247),#234,.F.);
#249=CARTESIAN_POINT('',(0.,0.,40.4));
#250=DIRECTION('',(0.,0.,-1.));
#251=DIRECTION('',(-1.,0.,0.));
#252=AXIS2_PLACEMENT_3D('',#249,#250,#251);
#253=CONICAL_SURFACE('',#252,15.7,45.);
#254=CARTESIAN_POINT('',(-15.9,0.,40.2));
#255=DIRECTION('',(0.707106781,-0.,0.707106781));
#256=VECTOR('',#255,0.282842712);
#257=LINE('',#254,#256);
#258=EDGE_CURVE('',#176,#33,#257,.T.);
#259=ORIENTED_EDGE('',*,*,#258,.T.);
#260=ORIENTED_EDGE('',*,*,#39,.F.);
#261=ORIENTED_EDGE('',*,*,#258,.F.);
#262=ORIENTED_EDGE('',*,*,#182,.F.);
#263=ORIENTED_EDGE('',*,*,#189,.F.);
#264=EDGE_LOOP('',(#259,#260,#261,#262,#263));
#265=FACE_BOUND('',#264,.T.);
#266=ADVANCED_FACE('',(#265),#253,.T.);
#267=CLOSED_SHELL('',(#63,#114,#151,#193,#212,#229,#248,#266));
#268=MANIFOLD_SOLID_BREP('laiton long',#267);
#269=COLOUR_RGB('',0.905882359,0.760784328,0.443137258);
#270=FILL_AREA_STYLE_COLOUR('',#269);
#271=FILL_AREA_STYLE('',(#270));
#272=SURFACE_STYLE_FILL_AREA(#271);
#273=SURFACE_SIDE_STYLE('',(#272));
#274=SURFACE_STYLE_USAGE(.BOTH.,#273);
#275=PRESENTATION_STYLE_ASSIGNMENT((#274));
#26=STYLED_ITEM('',(#275),#268);
#16=SHAPE_REPRESENTATION('root',(#15),#10);
#17=ADVANCED_BREP_SHAPE_REPRESENTATION('root',(#268),#10);
#283=SHAPE_REPRESENTATION_RELATIONSHIP('','',#16,#17);
#284=APPLICATION_CONTEXT('data for automotive mechanical design processes');
#285=APPLICATION_PROTOCOL_DEFINITION('international standard','automotive_design',1994,#284);
#286=PRODUCT_CONTEXT('',#284,'mechanical');
#287=PRODUCT_DEFINITION_CONTEXT('part definition',#284,'design');
#24=PRODUCT('root','root','',(#286));
#288=PRODUCT_RELATED_PRODUCT_CATEGORY('part','',(#24));
#289=PRODUCT_DEFINITION_FORMATION_WITH_SPECIFIED_SOURCE('','',#24,.NOT_KNOWN.);
#25=PRODUCT_DEFINITION('design','',#289,#287);
#23=PRODUCT_DEFINITION_SHAPE('','',#25);
#290=SHAPE_DEFINITION_REPRESENTATION(#23,#16);
#11=DRAUGHTING_MODEL('',(),#10);
#1=MECHANICAL_DESIGN_GEOMETRIC_PRESENTATION_REPRESENTATION('',(#26),#10);
ENDSEC;
END-ISO-10303-21;
