ISO-10303-21;
HEADER;
FILE_DESCRIPTION(('CATIA V5 STEP Exchange','CAx-IF Rec.Pracs.--- Model Styling and Organization---1.4--- 2014-01-23','CAx-IF Rec.Pracs.--- Geometric and Assembly Validation Properties ---4.2---2014-10-09','CAx-IF Rec.Pracs.---Tessellated 3D Geometry---0.5---2014-09-14'),'2;1');

FILE_NAME('C:\\Users\\SP002FE2\\Desktop\\ENTRETOISE\\ENTRETOISE 1 FILETE.stp','2023-02-13T09:36:31+00:00',('none'),('none'),'CATIA Version 5-6 Release 2017 SP2 HF134','CATIA V5 STEP AP242 v1','none');

FILE_SCHEMA(('AP242_MANAGED_MODEL_BASED_3D_ENGINEERING_MIM_LF  {1 0 10303 442 1 1 4}'));

ENDSEC;
DATA;
#5=PRODUCT('ENTRETOISE 1','','',(#2)) ;
#2=PRODUCT_CONTEXT(' ',#1,'mechanical') ;
#1=APPLICATION_CONTEXT('managed model based 3d engineering') ;
#10=PRODUCT_DEFINITION('',' ',#6,#3) ;
#3=PRODUCT_DEFINITION_CONTEXT('part definition',#1,' ') ;
#175=REPRESENTATION('',(#178,#181,#184),#16) ;
#200=REPRESENTATION('',(#203,#204,#205,#206,#207),#16) ;
#11=PRODUCT_DEFINITION_SHAPE(' ',' ',#10) ;
#176=PROPERTY_DEFINITION('geometric validation property','',#173) ;
#201=PROPERTY_DEFINITION('geometric validation property','',#11) ;
#173=SHAPE_ASPECT('','Solid',#11,.F.) ;
#198=MECHANICAL_DESIGN_GEOMETRIC_PRESENTATION_REPRESENTATION(' ',(#29),#16) ;
#199=MECHANICAL_DESIGN_GEOMETRIC_PRESENTATION_REPRESENTATION(' ',(#195),#16) ;
#19=SHAPE_REPRESENTATION(' ',(#18),#16) ;
#181=MEASURE_REPRESENTATION_ITEM('volume measure',VOLUME_MEASURE(4615.95422818),#180) ;
#184=MEASURE_REPRESENTATION_ITEM('wetted area measure',AREA_MEASURE(2980.79708857),#183) ;
#206=MEASURE_REPRESENTATION_ITEM('volume measure',VOLUME_MEASURE(4615.95422818),#180) ;
#207=MEASURE_REPRESENTATION_ITEM('wetted area measure',AREA_MEASURE(2980.79708857),#183) ;
#180=DERIVED_UNIT((#179)) ;
#183=DERIVED_UNIT((#182)) ;
#179=DERIVED_UNIT_ELEMENT(#12,3.) ;
#182=DERIVED_UNIT_ELEMENT(#12,2.) ;
#7=PRODUCT_CATEGORY('part','specification') ;
#17=CARTESIAN_POINT(' ',(0.,0.,0.)) ;
#31=CARTESIAN_POINT('Axis2P3D Location',(0.,0.,0.)) ;
#36=CARTESIAN_POINT('Line Origine',(-10.597,1.29775821306E-015,7.5)) ;
#40=CARTESIAN_POINT('Vertex',(-10.597,1.29775821306E-015,15.)) ;
#42=CARTESIAN_POINT('Vertex',(-10.597,1.29775821306E-015,2.6645352591E-015)) ;
#45=CARTESIAN_POINT('Axis2P3D Location',(0.,0.,15.)) ;
#49=CARTESIAN_POINT('Vertex',(10.597,0.,15.)) ;
#52=CARTESIAN_POINT('Line Origine',(10.597,-2.59551642611E-015,7.5)) ;
#56=CARTESIAN_POINT('Vertex',(10.597,0.,0.)) ;
#59=CARTESIAN_POINT('Axis2P3D Location',(0.,0.,0.)) ;
#71=CARTESIAN_POINT('Axis2P3D Location',(0.,0.,15.)) ;
#76=CARTESIAN_POINT('Axis2P3D Location',(0.,0.,0.)) ;
#88=CARTESIAN_POINT('Axis2P3D Location',(0.,0.,15.)) ;
#93=CARTESIAN_POINT('Axis2P3D Location',(0.,0.,15.)) ;
#97=CARTESIAN_POINT('Vertex',(14.5,0.,15.)) ;
#99=CARTESIAN_POINT('Vertex',(-14.5,1.77573785876E-015,15.)) ;
#102=CARTESIAN_POINT('Axis2P3D Location',(0.,0.,15.)) ;
#116=CARTESIAN_POINT('Axis2P3D Location',(0.,0.,7.5)) ;
#121=CARTESIAN_POINT('Line Origine',(14.5,0.,7.5)) ;
#125=CARTESIAN_POINT('Vertex',(14.5,0.,0.)) ;
#128=CARTESIAN_POINT('Axis2P3D Location',(0.,0.,0.)) ;
#132=CARTESIAN_POINT('Vertex',(-14.5,1.77573785876E-015,0.)) ;
#135=CARTESIAN_POINT('Line Origine',(-14.5,1.77573785876E-015,7.5)) ;
#147=CARTESIAN_POINT('Axis2P3D Location',(0.,0.,0.)) ;
#159=CARTESIAN_POINT('Axis2P3D Location',(0.,0.,0.)) ;
#178=CARTESIAN_POINT('centre point',(9.85164341775E-016,0.,7.5)) ;
#187=CARTESIAN_POINT('Axis2P3D Location',(0.,0.,0.)) ;
#203=CARTESIAN_POINT('centre point',(9.85164341775E-016,0.,7.5)) ;
#204=CARTESIAN_POINT('bounding box corner point',(-14.5,-14.5,0.)) ;
#205=CARTESIAN_POINT('bounding box corner point',(14.5,14.5,15.)) ;
#8=PRODUCT_RELATED_PRODUCT_CATEGORY('part',$,(#5)) ;
#177=PROPERTY_DEFINITION_REPRESENTATION(#176,#175) ;
#202=PROPERTY_DEFINITION_REPRESENTATION(#201,#200) ;
#29=STYLED_ITEM(' ',(#28),#21) ;
#195=STYLED_ITEM(' ',(#194),#190) ;
#28=PRESENTATION_STYLE_ASSIGNMENT((#27)) ;
#194=PRESENTATION_STYLE_ASSIGNMENT((#193)) ;
#193=CURVE_STYLE(' ',#191,POSITIVE_LENGTH_MEASURE(0.129999995232),#192) ;
#27=SURFACE_STYLE_USAGE(.BOTH.,#26) ;
#26=SURFACE_SIDE_STYLE(' ',(#25)) ;
#25=SURFACE_STYLE_FILL_AREA(#24) ;
#24=FILL_AREA_STYLE(' ',(#23)) ;
#23=FILL_AREA_STYLE_COLOUR(' ',#22) ;
#38=VECTOR('Line Direction',#37,1.) ;
#54=VECTOR('Line Direction',#53,1.) ;
#123=VECTOR('Line Direction',#122,1.) ;
#137=VECTOR('Line Direction',#136,1.) ;
#32=DIRECTION('Axis2P3D Direction',(0.,-0.,1.)) ;
#33=DIRECTION('Axis2P3D XDirection',(1.,0.,0.)) ;
#37=DIRECTION('Vector Direction',(0.,0.,1.)) ;
#46=DIRECTION('Axis2P3D Direction',(0.,-0.,1.)) ;
#53=DIRECTION('Vector Direction',(0.,0.,1.)) ;
#60=DIRECTION('Axis2P3D Direction',(0.,-0.,1.)) ;
#72=DIRECTION('Axis2P3D Direction',(0.,-0.,1.)) ;
#77=DIRECTION('Axis2P3D Direction',(0.,-0.,1.)) ;
#89=DIRECTION('Axis2P3D Direction',(0.,0.,1.)) ;
#90=DIRECTION('Axis2P3D XDirection',(1.,0.,0.)) ;
#94=DIRECTION('Axis2P3D Direction',(0.,0.,1.)) ;
#103=DIRECTION('Axis2P3D Direction',(0.,0.,1.)) ;
#117=DIRECTION('Axis2P3D Direction',(0.,0.,1.)) ;
#118=DIRECTION('Axis2P3D XDirection',(1.,0.,0.)) ;
#122=DIRECTION('Vector Direction',(0.,0.,1.)) ;
#129=DIRECTION('Axis2P3D Direction',(0.,0.,1.)) ;
#136=DIRECTION('Vector Direction',(0.,0.,1.)) ;
#148=DIRECTION('Axis2P3D Direction',(0.,0.,1.)) ;
#160=DIRECTION('Axis2P3D Direction',(0.,0.,1.)) ;
#161=DIRECTION('Axis2P3D XDirection',(1.,0.,0.)) ;
#188=DIRECTION('Axis2P3D Direction',(0.,0.,1.)) ;
#189=DIRECTION('Axis2P3D XDirection',(1.,0.,0.)) ;
#15=UNCERTAINTY_MEASURE_WITH_UNIT(LENGTH_MEASURE(0.005),#12,'distance_accuracy_value','CONFUSED CURVE UNCERTAINTY') ;
#18=AXIS2_PLACEMENT_3D(' ',#17,$,$) ;
#34=AXIS2_PLACEMENT_3D('Cylinder Axis2P3D',#31,#32,#33) ;
#47=AXIS2_PLACEMENT_3D('Circle Axis2P3D',#45,#46,$) ;
#61=AXIS2_PLACEMENT_3D('Circle Axis2P3D',#59,#60,$) ;
#73=AXIS2_PLACEMENT_3D('Circle Axis2P3D',#71,#72,$) ;
#78=AXIS2_PLACEMENT_3D('Circle Axis2P3D',#76,#77,$) ;
#91=AXIS2_PLACEMENT_3D('Plane Axis2P3D',#88,#89,#90) ;
#95=AXIS2_PLACEMENT_3D('Circle Axis2P3D',#93,#94,$) ;
#104=AXIS2_PLACEMENT_3D('Circle Axis2P3D',#102,#103,$) ;
#119=AXIS2_PLACEMENT_3D('Cylinder Axis2P3D',#116,#117,#118) ;
#130=AXIS2_PLACEMENT_3D('Circle Axis2P3D',#128,#129,$) ;
#149=AXIS2_PLACEMENT_3D('Circle Axis2P3D',#147,#148,$) ;
#162=AXIS2_PLACEMENT_3D('Plane Axis2P3D',#159,#160,#161) ;
#190=AXIS2_PLACEMENT_3D('Absolute Axis System',#187,#188,#189) ;
#39=LINE('Line',#36,#38) ;
#55=LINE('Line',#52,#54) ;
#124=LINE('Line',#121,#123) ;
#138=LINE('Line',#135,#137) ;
#48=CIRCLE('generated circle',#47,10.597) ;
#62=CIRCLE('generated circle',#61,10.597) ;
#74=CIRCLE('generated circle',#73,10.597) ;
#79=CIRCLE('generated circle',#78,10.597) ;
#96=CIRCLE('generated circle',#95,14.5) ;
#105=CIRCLE('generated circle',#104,14.5) ;
#131=CIRCLE('generated circle',#130,14.5) ;
#150=CIRCLE('generated circle',#149,14.5) ;
#92=PLANE('',#91) ;
#163=PLANE('',#162) ;
#35=CYLINDRICAL_SURFACE('generated cylinder',#34,10.597) ;
#120=CYLINDRICAL_SURFACE('generated cylinder',#119,14.5) ;
#114=FACE_BOUND('',#111,.T.) ;
#171=FACE_BOUND('',#168,.T.) ;
#44=EDGE_CURVE('',#41,#43,#39,.F.) ;
#51=EDGE_CURVE('',#41,#50,#48,.T.) ;
#58=EDGE_CURVE('',#50,#57,#55,.F.) ;
#63=EDGE_CURVE('',#43,#57,#62,.T.) ;
#75=EDGE_CURVE('',#50,#41,#74,.T.) ;
#80=EDGE_CURVE('',#57,#43,#79,.T.) ;
#101=EDGE_CURVE('',#98,#100,#96,.T.) ;
#106=EDGE_CURVE('',#100,#98,#105,.T.) ;
#127=EDGE_CURVE('',#126,#98,#124,.T.) ;
#134=EDGE_CURVE('',#126,#133,#131,.T.) ;
#139=EDGE_CURVE('',#133,#100,#138,.T.) ;
#151=EDGE_CURVE('',#133,#126,#150,.T.) ;
#30=CLOSED_SHELL('Closed Shell',(#70,#87,#115,#146,#158,#172)) ;
#196=CONSTRUCTIVE_GEOMETRY_REPRESENTATION('supplemental geometry',(#190),#16) ;
#186=SHAPE_REPRESENTATION_RELATIONSHIP(' ',' ',#19,#185) ;
#64=EDGE_LOOP('',(#65,#66,#67,#68)) ;
#81=EDGE_LOOP('',(#82,#83,#84,#85)) ;
#107=EDGE_LOOP('',(#108,#109)) ;
#111=EDGE_LOOP('',(#112,#113)) ;
#140=EDGE_LOOP('',(#141,#142,#143,#144)) ;
#152=EDGE_LOOP('',(#153,#154,#155,#156)) ;
#164=EDGE_LOOP('',(#165,#166)) ;
#168=EDGE_LOOP('',(#169,#170)) ;
#65=ORIENTED_EDGE('',*,*,#44,.F.) ;
#66=ORIENTED_EDGE('',*,*,#51,.T.) ;
#67=ORIENTED_EDGE('',*,*,#58,.T.) ;
#68=ORIENTED_EDGE('',*,*,#63,.F.) ;
#82=ORIENTED_EDGE('',*,*,#58,.F.) ;
#83=ORIENTED_EDGE('',*,*,#75,.T.) ;
#84=ORIENTED_EDGE('',*,*,#44,.T.) ;
#85=ORIENTED_EDGE('',*,*,#80,.F.) ;
#108=ORIENTED_EDGE('',*,*,#101,.T.) ;
#109=ORIENTED_EDGE('',*,*,#106,.T.) ;
#112=ORIENTED_EDGE('',*,*,#75,.F.) ;
#113=ORIENTED_EDGE('',*,*,#51,.F.) ;
#141=ORIENTED_EDGE('',*,*,#127,.F.) ;
#142=ORIENTED_EDGE('',*,*,#134,.T.) ;
#143=ORIENTED_EDGE('',*,*,#139,.T.) ;
#144=ORIENTED_EDGE('',*,*,#101,.F.) ;
#153=ORIENTED_EDGE('',*,*,#139,.F.) ;
#154=ORIENTED_EDGE('',*,*,#151,.T.) ;
#155=ORIENTED_EDGE('',*,*,#127,.T.) ;
#156=ORIENTED_EDGE('',*,*,#106,.F.) ;
#165=ORIENTED_EDGE('',*,*,#151,.F.) ;
#166=ORIENTED_EDGE('',*,*,#134,.F.) ;
#169=ORIENTED_EDGE('',*,*,#63,.T.) ;
#170=ORIENTED_EDGE('',*,*,#80,.T.) ;
#21=MANIFOLD_SOLID_BREP('PartBody',#30) ;
#41=VERTEX_POINT('',#40) ;
#43=VERTEX_POINT('',#42) ;
#50=VERTEX_POINT('',#49) ;
#57=VERTEX_POINT('',#56) ;
#98=VERTEX_POINT('',#97) ;
#100=VERTEX_POINT('',#99) ;
#126=VERTEX_POINT('',#125) ;
#133=VERTEX_POINT('',#132) ;
#185=ADVANCED_BREP_SHAPE_REPRESENTATION('NONE',(#21),#16) ;
#70=ADVANCED_FACE('PartBody',(#69),#35,.F.) ;
#87=ADVANCED_FACE('PartBody',(#86),#35,.F.) ;
#115=ADVANCED_FACE('PartBody',(#110,#114),#92,.T.) ;
#146=ADVANCED_FACE('PartBody',(#145),#120,.T.) ;
#158=ADVANCED_FACE('PartBody',(#157),#120,.T.) ;
#172=ADVANCED_FACE('PartBody',(#167,#171),#163,.F.) ;
#4=APPLICATION_PROTOCOL_DEFINITION('international standard','ap242_managed_model_based_3d_engineering',2014,#1) ;
#174=GEOMETRIC_ITEM_SPECIFIC_USAGE('','Solid',#173,#19,#21) ;
#22=COLOUR_RGB('Colour',0.823529411765,0.823529411765,1.) ;
#197=CONSTRUCTIVE_GEOMETRY_REPRESENTATION_RELATIONSHIP('supplemental geometry','',#19,#196) ;
#192=DRAUGHTING_PRE_DEFINED_COLOUR('white') ;
#191=DRAUGHTING_PRE_DEFINED_CURVE_FONT('continuous') ;
#69=FACE_OUTER_BOUND('',#64,.T.) ;
#86=FACE_OUTER_BOUND('',#81,.T.) ;
#110=FACE_OUTER_BOUND('',#107,.T.) ;
#145=FACE_OUTER_BOUND('',#140,.T.) ;
#157=FACE_OUTER_BOUND('',#152,.T.) ;
#167=FACE_OUTER_BOUND('',#164,.T.) ;
#9=PRODUCT_CATEGORY_RELATIONSHIP(' ',' ',#7,#8) ;
#6=PRODUCT_DEFINITION_FORMATION_WITH_SPECIFIED_SOURCE('',' ',#5,.NOT_KNOWN.) ;
#20=SHAPE_DEFINITION_REPRESENTATION(#11,#19) ;
#12=(LENGTH_UNIT()NAMED_UNIT(*)SI_UNIT(.MILLI.,.METRE.)) ;
#13=(NAMED_UNIT(*)PLANE_ANGLE_UNIT()SI_UNIT($,.RADIAN.)) ;
#14=(NAMED_UNIT(*)SI_UNIT($,.STERADIAN.)SOLID_ANGLE_UNIT()) ;
#16=(GEOMETRIC_REPRESENTATION_CONTEXT(3)GLOBAL_UNCERTAINTY_ASSIGNED_CONTEXT((#15))GLOBAL_UNIT_ASSIGNED_CONTEXT((#12,#13,#14))REPRESENTATION_CONTEXT(' ',' ')) ;
ENDSEC;
END-ISO-10303-21;
