ISO-10303-21;
HEADER;
/* Generated by software containing ST-Developer
 * from STEP Tools, Inc. (www.steptools.com) 
 */

FILE_DESCRIPTION(
/* description */ (''),
/* implementation_level */ '2;1');

FILE_NAME(
/* name */ 'Axe 25_120.stp',
/* time_stamp */ '2023-02-01T11:57:32+01:00',
/* author */ ('snowak'),
/* organization */ (''),
/* preprocessor_version */ 'ST-DEVELOPER v19.2',
/* originating_system */ 'Autodesk Inventor 2023',
/* authorisation */ '');

FILE_SCHEMA (('AUTOMOTIVE_DESIGN { 1 0 10303 214 3 1 1 }'));
ENDSEC;

DATA;
#10=MECHANICAL_DESIGN_GEOMETRIC_PRESENTATION_REPRESENTATION('',(#17,#18),
#363);
#11=SHAPE_REPRESENTATION_RELATIONSHIP('SRR','None',#370,#12);
#12=ADVANCED_BREP_SHAPE_REPRESENTATION('',(#19,#20),#362);
#13=FACE_BOUND('',#72,.T.);
#14=FACE_BOUND('',#73,.T.);
#15=FACE_BOUND('',#75,.T.);
#16=FACE_BOUND('',#76,.T.);
#17=STYLED_ITEM('',(#379),#19);
#18=STYLED_ITEM('',(#379),#20);
#19=MANIFOLD_SOLID_BREP('Solide1',#197);
#20=MANIFOLD_SOLID_BREP('Solide2',#198);
#21=CONICAL_SURFACE('',#226,11.5,0.78539816339744);
#22=LINE('',#316,#34);
#23=LINE('',#319,#35);
#24=LINE('',#327,#36);
#25=LINE('',#330,#37);
#26=LINE('',#333,#38);
#27=LINE('',#335,#39);
#28=LINE('',#336,#40);
#29=LINE('',#341,#41);
#30=LINE('',#344,#42);
#31=LINE('',#345,#43);
#32=LINE('',#357,#44);
#33=LINE('',#359,#45);
#34=VECTOR('',#257,12.5);
#35=VECTOR('',#260,11.5);
#36=VECTOR('',#269,1000.);
#37=VECTOR('',#272,1000.);
#38=VECTOR('',#275,1000.);
#39=VECTOR('',#276,1000.);
#40=VECTOR('',#277,1000.);
#41=VECTOR('',#282,1000.);
#42=VECTOR('',#287,1000.);
#43=VECTOR('',#288,1000.);
#44=VECTOR('',#303,12.55);
#45=VECTOR('',#306,3.5);
#46=CYLINDRICAL_SURFACE('',#223,12.5);
#47=CYLINDRICAL_SURFACE('',#229,20.);
#48=CYLINDRICAL_SURFACE('',#233,9.99999999999999);
#49=CYLINDRICAL_SURFACE('',#243,12.55);
#50=CYLINDRICAL_SURFACE('',#244,3.5);
#51=FACE_OUTER_BOUND('',#63,.T.);
#52=FACE_OUTER_BOUND('',#64,.T.);
#53=FACE_OUTER_BOUND('',#65,.T.);
#54=FACE_OUTER_BOUND('',#66,.T.);
#55=FACE_OUTER_BOUND('',#67,.T.);
#56=FACE_OUTER_BOUND('',#68,.T.);
#57=FACE_OUTER_BOUND('',#69,.T.);
#58=FACE_OUTER_BOUND('',#70,.T.);
#59=FACE_OUTER_BOUND('',#71,.T.);
#60=FACE_OUTER_BOUND('',#74,.T.);
#61=FACE_OUTER_BOUND('',#77,.T.);
#62=FACE_OUTER_BOUND('',#78,.T.);
#63=EDGE_LOOP('',(#131));
#64=EDGE_LOOP('',(#132,#133,#134,#135,#136));
#65=EDGE_LOOP('',(#137,#138,#139,#140,#141));
#66=EDGE_LOOP('',(#142));
#67=EDGE_LOOP('',(#143,#144,#145,#146));
#68=EDGE_LOOP('',(#147,#148,#149,#150));
#69=EDGE_LOOP('',(#151,#152,#153,#154));
#70=EDGE_LOOP('',(#155,#156,#157,#158));
#71=EDGE_LOOP('',(#159,#160,#161,#162));
#72=EDGE_LOOP('',(#163));
#73=EDGE_LOOP('',(#164));
#74=EDGE_LOOP('',(#165,#166,#167,#168));
#75=EDGE_LOOP('',(#169));
#76=EDGE_LOOP('',(#170));
#77=EDGE_LOOP('',(#171,#172,#173,#174));
#78=EDGE_LOOP('',(#175,#176,#177,#178));
#79=CIRCLE('',#222,12.5);
#80=CIRCLE('',#224,12.5);
#81=CIRCLE('',#225,12.5);
#82=CIRCLE('',#227,11.5);
#83=CIRCLE('',#230,20.);
#84=CIRCLE('',#231,20.);
#85=CIRCLE('',#234,9.99999999999999);
#86=CIRCLE('',#235,9.99999999999999);
#87=CIRCLE('',#238,3.5);
#88=CIRCLE('',#239,12.55);
#89=CIRCLE('',#241,3.5);
#90=CIRCLE('',#242,12.55);
#91=VERTEX_POINT('',#309);
#92=VERTEX_POINT('',#312);
#93=VERTEX_POINT('',#313);
#94=VERTEX_POINT('',#318);
#95=VERTEX_POINT('',#323);
#96=VERTEX_POINT('',#324);
#97=VERTEX_POINT('',#326);
#98=VERTEX_POINT('',#328);
#99=VERTEX_POINT('',#332);
#100=VERTEX_POINT('',#334);
#101=VERTEX_POINT('',#338);
#102=VERTEX_POINT('',#340);
#103=VERTEX_POINT('',#347);
#104=VERTEX_POINT('',#349);
#105=VERTEX_POINT('',#352);
#106=VERTEX_POINT('',#354);
#107=EDGE_CURVE('',#91,#91,#79,.T.);
#108=EDGE_CURVE('',#92,#93,#80,.T.);
#109=EDGE_CURVE('',#93,#92,#81,.T.);
#110=EDGE_CURVE('',#93,#91,#22,.T.);
#111=EDGE_CURVE('',#92,#94,#23,.T.);
#112=EDGE_CURVE('',#94,#94,#82,.T.);
#113=EDGE_CURVE('',#95,#96,#83,.T.);
#114=EDGE_CURVE('',#97,#95,#24,.T.);
#115=EDGE_CURVE('',#97,#98,#84,.T.);
#116=EDGE_CURVE('',#98,#96,#25,.T.);
#117=EDGE_CURVE('',#99,#95,#26,.T.);
#118=EDGE_CURVE('',#100,#99,#27,.T.);
#119=EDGE_CURVE('',#100,#97,#28,.T.);
#120=EDGE_CURVE('',#101,#99,#85,.T.);
#121=EDGE_CURVE('',#102,#101,#29,.T.);
#122=EDGE_CURVE('',#102,#100,#86,.T.);
#123=EDGE_CURVE('',#96,#101,#30,.T.);
#124=EDGE_CURVE('',#98,#102,#31,.T.);
#125=EDGE_CURVE('',#103,#103,#87,.T.);
#126=EDGE_CURVE('',#104,#104,#88,.T.);
#127=EDGE_CURVE('',#105,#105,#89,.T.);
#128=EDGE_CURVE('',#106,#106,#90,.T.);
#129=EDGE_CURVE('',#104,#106,#32,.T.);
#130=EDGE_CURVE('',#103,#105,#33,.T.);
#131=ORIENTED_EDGE('',*,*,#107,.F.);
#132=ORIENTED_EDGE('',*,*,#108,.F.);
#133=ORIENTED_EDGE('',*,*,#109,.F.);
#134=ORIENTED_EDGE('',*,*,#110,.T.);
#135=ORIENTED_EDGE('',*,*,#107,.T.);
#136=ORIENTED_EDGE('',*,*,#110,.F.);
#137=ORIENTED_EDGE('',*,*,#108,.T.);
#138=ORIENTED_EDGE('',*,*,#109,.T.);
#139=ORIENTED_EDGE('',*,*,#111,.T.);
#140=ORIENTED_EDGE('',*,*,#112,.F.);
#141=ORIENTED_EDGE('',*,*,#111,.F.);
#142=ORIENTED_EDGE('',*,*,#112,.T.);
#143=ORIENTED_EDGE('',*,*,#113,.F.);
#144=ORIENTED_EDGE('',*,*,#114,.F.);
#145=ORIENTED_EDGE('',*,*,#115,.T.);
#146=ORIENTED_EDGE('',*,*,#116,.T.);
#147=ORIENTED_EDGE('',*,*,#117,.F.);
#148=ORIENTED_EDGE('',*,*,#118,.F.);
#149=ORIENTED_EDGE('',*,*,#119,.T.);
#150=ORIENTED_EDGE('',*,*,#114,.T.);
#151=ORIENTED_EDGE('',*,*,#120,.F.);
#152=ORIENTED_EDGE('',*,*,#121,.F.);
#153=ORIENTED_EDGE('',*,*,#122,.T.);
#154=ORIENTED_EDGE('',*,*,#118,.T.);
#155=ORIENTED_EDGE('',*,*,#123,.F.);
#156=ORIENTED_EDGE('',*,*,#116,.F.);
#157=ORIENTED_EDGE('',*,*,#124,.T.);
#158=ORIENTED_EDGE('',*,*,#121,.T.);
#159=ORIENTED_EDGE('',*,*,#115,.F.);
#160=ORIENTED_EDGE('',*,*,#119,.F.);
#161=ORIENTED_EDGE('',*,*,#122,.F.);
#162=ORIENTED_EDGE('',*,*,#124,.F.);
#163=ORIENTED_EDGE('',*,*,#125,.T.);
#164=ORIENTED_EDGE('',*,*,#126,.T.);
#165=ORIENTED_EDGE('',*,*,#113,.T.);
#166=ORIENTED_EDGE('',*,*,#123,.T.);
#167=ORIENTED_EDGE('',*,*,#120,.T.);
#168=ORIENTED_EDGE('',*,*,#117,.T.);
#169=ORIENTED_EDGE('',*,*,#127,.F.);
#170=ORIENTED_EDGE('',*,*,#128,.F.);
#171=ORIENTED_EDGE('',*,*,#126,.F.);
#172=ORIENTED_EDGE('',*,*,#129,.T.);
#173=ORIENTED_EDGE('',*,*,#128,.T.);
#174=ORIENTED_EDGE('',*,*,#129,.F.);
#175=ORIENTED_EDGE('',*,*,#125,.F.);
#176=ORIENTED_EDGE('',*,*,#130,.T.);
#177=ORIENTED_EDGE('',*,*,#127,.T.);
#178=ORIENTED_EDGE('',*,*,#130,.F.);
#179=PLANE('',#221);
#180=PLANE('',#228);
#181=PLANE('',#232);
#182=PLANE('',#236);
#183=PLANE('',#237);
#184=PLANE('',#240);
#185=ADVANCED_FACE('',(#51),#179,.T.);
#186=ADVANCED_FACE('',(#52),#46,.T.);
#187=ADVANCED_FACE('',(#53),#21,.T.);
#188=ADVANCED_FACE('',(#54),#180,.T.);
#189=ADVANCED_FACE('',(#55),#47,.T.);
#190=ADVANCED_FACE('',(#56),#181,.T.);
#191=ADVANCED_FACE('',(#57),#48,.T.);
#192=ADVANCED_FACE('',(#58),#182,.T.);
#193=ADVANCED_FACE('',(#59,#13,#14),#183,.T.);
#194=ADVANCED_FACE('',(#60,#15,#16),#184,.F.);
#195=ADVANCED_FACE('',(#61),#49,.F.);
#196=ADVANCED_FACE('',(#62),#50,.F.);
#197=CLOSED_SHELL('',(#185,#186,#187,#188));
#198=CLOSED_SHELL('',(#189,#190,#191,#192,#193,#194,#195,#196));
#199=DERIVED_UNIT_ELEMENT(#202,1.);
#200=DERIVED_UNIT_ELEMENT(#365,-3.);
#201=DIMENSIONAL_EXPONENTS(0.,1.,0.,0.,0.,0.,0.);
#202=(
CONVERSION_BASED_UNIT('gram',#204)
MASS_UNIT()
NAMED_UNIT(#201)
);
#203=(
MASS_UNIT()
NAMED_UNIT(*)
SI_UNIT(.KILO.,.GRAM.)
);
#204=MASS_MEASURE_WITH_UNIT(MASS_MEASURE(0.001),#203);
#205=DERIVED_UNIT((#199,#200));
#206=MEASURE_REPRESENTATION_ITEM('density measure',
POSITIVE_RATIO_MEASURE(1.),#205);
#207=PROPERTY_DEFINITION_REPRESENTATION(#212,#209);
#208=PROPERTY_DEFINITION_REPRESENTATION(#213,#210);
#209=REPRESENTATION('material name',(#211),#362);
#210=REPRESENTATION('density',(#206),#362);
#211=DESCRIPTIVE_REPRESENTATION_ITEM('G\X\E9n\X\E9rique','G\X\E9n\X\E9
rique');
#212=PROPERTY_DEFINITION('material property','material name',#372);
#213=PROPERTY_DEFINITION('material property','density of part',#372);
#214=DATE_TIME_ROLE('creation_date');
#215=APPLIED_DATE_AND_TIME_ASSIGNMENT(#216,#214,(#372));
#216=DATE_AND_TIME(#217,#218);
#217=CALENDAR_DATE(2020,15,12);
#218=LOCAL_TIME(0,0,0.,#219);
#219=COORDINATED_UNIVERSAL_TIME_OFFSET(0,0,.BEHIND.);
#220=AXIS2_PLACEMENT_3D('placement',#307,#245,#246);
#221=AXIS2_PLACEMENT_3D('',#308,#247,#248);
#222=AXIS2_PLACEMENT_3D('',#310,#249,#250);
#223=AXIS2_PLACEMENT_3D('',#311,#251,#252);
#224=AXIS2_PLACEMENT_3D('',#314,#253,#254);
#225=AXIS2_PLACEMENT_3D('',#315,#255,#256);
#226=AXIS2_PLACEMENT_3D('',#317,#258,#259);
#227=AXIS2_PLACEMENT_3D('',#320,#261,#262);
#228=AXIS2_PLACEMENT_3D('',#321,#263,#264);
#229=AXIS2_PLACEMENT_3D('',#322,#265,#266);
#230=AXIS2_PLACEMENT_3D('',#325,#267,#268);
#231=AXIS2_PLACEMENT_3D('',#329,#270,#271);
#232=AXIS2_PLACEMENT_3D('',#331,#273,#274);
#233=AXIS2_PLACEMENT_3D('',#337,#278,#279);
#234=AXIS2_PLACEMENT_3D('',#339,#280,#281);
#235=AXIS2_PLACEMENT_3D('',#342,#283,#284);
#236=AXIS2_PLACEMENT_3D('',#343,#285,#286);
#237=AXIS2_PLACEMENT_3D('',#346,#289,#290);
#238=AXIS2_PLACEMENT_3D('',#348,#291,#292);
#239=AXIS2_PLACEMENT_3D('',#350,#293,#294);
#240=AXIS2_PLACEMENT_3D('',#351,#295,#296);
#241=AXIS2_PLACEMENT_3D('',#353,#297,#298);
#242=AXIS2_PLACEMENT_3D('',#355,#299,#300);
#243=AXIS2_PLACEMENT_3D('',#356,#301,#302);
#244=AXIS2_PLACEMENT_3D('',#358,#304,#305);
#245=DIRECTION('axis',(0.,0.,1.));
#246=DIRECTION('refdir',(1.,0.,0.));
#247=DIRECTION('center_axis',(-1.,-1.22464679914735E-16,0.));
#248=DIRECTION('ref_axis',(1.22464679914735E-16,-1.,0.));
#249=DIRECTION('center_axis',(1.,1.22464679914735E-16,0.));
#250=DIRECTION('ref_axis',(-1.22464679914735E-16,1.,0.));
#251=DIRECTION('center_axis',(1.,1.22464679914735E-16,0.));
#252=DIRECTION('ref_axis',(-1.22464679914735E-16,1.,0.));
#253=DIRECTION('center_axis',(1.,1.22464679914735E-16,0.));
#254=DIRECTION('ref_axis',(-1.22464679914735E-16,1.,0.));
#255=DIRECTION('center_axis',(1.,1.22464679914735E-16,0.));
#256=DIRECTION('ref_axis',(-1.22464679914735E-16,1.,0.));
#257=DIRECTION('',(-1.,-1.22464679914735E-16,0.));
#258=DIRECTION('center_axis',(-1.,-1.22464679914735E-16,0.));
#259=DIRECTION('ref_axis',(1.22464679914735E-16,-1.,0.));
#260=DIRECTION('',(0.707106781186554,-0.707106781186541,8.65956056235486E-17));
#261=DIRECTION('center_axis',(1.,1.22464679914735E-16,0.));
#262=DIRECTION('ref_axis',(-1.22464679914735E-16,1.,0.));
#263=DIRECTION('center_axis',(1.,1.22464679914735E-16,0.));
#264=DIRECTION('ref_axis',(-1.22464679914735E-16,1.,0.));
#265=DIRECTION('center_axis',(-1.,0.,0.));
#266=DIRECTION('ref_axis',(0.,-1.,-1.83697019872103E-16));
#267=DIRECTION('center_axis',(-1.,0.,0.));
#268=DIRECTION('ref_axis',(0.,0.,-1.));
#269=DIRECTION('',(-1.,0.,0.));
#270=DIRECTION('center_axis',(-1.,0.,0.));
#271=DIRECTION('ref_axis',(0.,0.,-1.));
#272=DIRECTION('',(-1.,0.,0.));
#273=DIRECTION('center_axis',(0.,0.4,-0.916515138991168));
#274=DIRECTION('ref_axis',(0.,0.916515138991168,0.4));
#275=DIRECTION('',(0.,-0.916515138991168,-0.4));
#276=DIRECTION('',(-1.,0.,0.));
#277=DIRECTION('',(0.,-0.916515138991168,-0.4));
#278=DIRECTION('center_axis',(-1.,0.,0.));
#279=DIRECTION('ref_axis',(0.,0.,1.));
#280=DIRECTION('center_axis',(-1.,0.,0.));
#281=DIRECTION('ref_axis',(0.,0.,-1.));
#282=DIRECTION('',(-1.,0.,0.));
#283=DIRECTION('center_axis',(-1.,0.,0.));
#284=DIRECTION('ref_axis',(0.,0.,-1.));
#285=DIRECTION('center_axis',(0.,0.4,0.916515138991168));
#286=DIRECTION('ref_axis',(0.,-0.916515138991168,0.4));
#287=DIRECTION('',(0.,0.916515138991168,-0.4));
#288=DIRECTION('',(0.,0.916515138991168,-0.4));
#289=DIRECTION('center_axis',(1.,0.,0.));
#290=DIRECTION('ref_axis',(0.,0.,-1.));
#291=DIRECTION('center_axis',(-1.,0.,0.));
#292=DIRECTION('ref_axis',(0.,0.,1.));
#293=DIRECTION('center_axis',(-1.,0.,0.));
#294=DIRECTION('ref_axis',(0.,0.,1.));
#295=DIRECTION('center_axis',(1.,0.,0.));
#296=DIRECTION('ref_axis',(0.,0.,-1.));
#297=DIRECTION('center_axis',(-1.,0.,0.));
#298=DIRECTION('ref_axis',(0.,0.,1.));
#299=DIRECTION('center_axis',(-1.,0.,0.));
#300=DIRECTION('ref_axis',(0.,0.,1.));
#301=DIRECTION('center_axis',(-1.,0.,0.));
#302=DIRECTION('ref_axis',(0.,0.,1.));
#303=DIRECTION('',(-1.,0.,0.));
#304=DIRECTION('center_axis',(-1.,0.,0.));
#305=DIRECTION('ref_axis',(0.,0.,1.));
#306=DIRECTION('',(-1.,0.,0.));
#307=CARTESIAN_POINT('',(0.,0.,0.));
#308=CARTESIAN_POINT('Origin',(-60.,12.5,0.));
#309=CARTESIAN_POINT('',(-60.,-12.5,-1.53080849893419E-15));
#310=CARTESIAN_POINT('Origin',(-60.,-1.90819582357449E-14,0.));
#311=CARTESIAN_POINT('Origin',(60.,-4.38619664597664E-15,0.));
#312=CARTESIAN_POINT('',(59.,12.5,0.));
#313=CARTESIAN_POINT('',(59.,-12.5,-1.53080849893419E-15));
#314=CARTESIAN_POINT('Origin',(59.,-4.50866132589138E-15,0.));
#315=CARTESIAN_POINT('Origin',(59.,-4.50866132589138E-15,0.));
#316=CARTESIAN_POINT('',(60.,-12.5,-1.53080849893419E-15));
#317=CARTESIAN_POINT('Origin',(60.,-4.38619664597664E-15,0.));
#318=CARTESIAN_POINT('',(60.,11.5,0.));
#319=CARTESIAN_POINT('',(60.,11.5,-1.40834381901946E-15));
#320=CARTESIAN_POINT('Origin',(60.,-4.38619664597664E-15,0.));
#321=CARTESIAN_POINT('Origin',(60.,11.5,0.));
#322=CARTESIAN_POINT('Origin',(-57.,-7.34788079488412E-15,0.));
#323=CARTESIAN_POINT('',(-60.,8.,-18.3303027798234));
#324=CARTESIAN_POINT('',(-60.,8.,18.3303027798234));
#325=CARTESIAN_POINT('Origin',(-60.,-7.34788079488412E-15,0.));
#326=CARTESIAN_POINT('',(-57.,8.,-18.3303027798234));
#327=CARTESIAN_POINT('',(-57.,8.,-18.3303027798234));
#328=CARTESIAN_POINT('',(-57.,8.,18.3303027798234));
#329=CARTESIAN_POINT('Origin',(-57.,-7.34788079488412E-15,0.));
#330=CARTESIAN_POINT('',(-57.,8.,18.3303027798234));
#331=CARTESIAN_POINT('Origin',(-57.,8.,-18.3303027798234));
#332=CARTESIAN_POINT('',(-60.,29.,-9.16515138991168));
#333=CARTESIAN_POINT('',(-60.,8.,-18.3303027798234));
#334=CARTESIAN_POINT('',(-57.,29.,-9.16515138991168));
#335=CARTESIAN_POINT('',(-57.,29.,-9.16515138991168));
#336=CARTESIAN_POINT('',(-57.,8.,-18.3303027798234));
#337=CARTESIAN_POINT('Origin',(-57.,25.,0.));
#338=CARTESIAN_POINT('',(-60.,29.,9.16515138991168));
#339=CARTESIAN_POINT('Origin',(-60.,25.,0.));
#340=CARTESIAN_POINT('',(-57.,29.,9.16515138991168));
#341=CARTESIAN_POINT('',(-57.,29.,9.16515138991168));
#342=CARTESIAN_POINT('Origin',(-57.,25.,0.));
#343=CARTESIAN_POINT('Origin',(-57.,29.,9.16515138991168));
#344=CARTESIAN_POINT('',(-60.,29.,9.16515138991168));
#345=CARTESIAN_POINT('',(-57.,29.,9.16515138991168));
#346=CARTESIAN_POINT('Origin',(-57.,-7.34788079488412E-15,0.));
#347=CARTESIAN_POINT('',(-57.,25.,-3.5));
#348=CARTESIAN_POINT('Origin',(-57.,25.,0.));
#349=CARTESIAN_POINT('',(-57.,-8.88481252781405E-15,-12.55));
#350=CARTESIAN_POINT('Origin',(-57.,-7.34788079488412E-15,0.));
#351=CARTESIAN_POINT('Origin',(-60.,-7.34788079488412E-15,0.));
#352=CARTESIAN_POINT('',(-60.,25.,-3.5));
#353=CARTESIAN_POINT('Origin',(-60.,25.,0.));
#354=CARTESIAN_POINT('',(-60.,-8.88481252781405E-15,-12.55));
#355=CARTESIAN_POINT('Origin',(-60.,-7.34788079488412E-15,0.));
#356=CARTESIAN_POINT('Origin',(-57.,-7.34788079488412E-15,0.));
#357=CARTESIAN_POINT('',(-57.,-8.88481252781405E-15,-12.55));
#358=CARTESIAN_POINT('Origin',(-57.,25.,0.));
#359=CARTESIAN_POINT('',(-57.,25.,-3.5));
#360=UNCERTAINTY_MEASURE_WITH_UNIT(LENGTH_MEASURE(0.01),#364,
'DISTANCE_ACCURACY_VALUE',
'Maximum model space distance between geometric entities at asserted c
onnectivities');
#361=UNCERTAINTY_MEASURE_WITH_UNIT(LENGTH_MEASURE(0.01),#364,
'DISTANCE_ACCURACY_VALUE',
'Maximum model space distance between geometric entities at asserted c
onnectivities');
#362=(
GEOMETRIC_REPRESENTATION_CONTEXT(3)
GLOBAL_UNCERTAINTY_ASSIGNED_CONTEXT((#360))
GLOBAL_UNIT_ASSIGNED_CONTEXT((#364,#366,#367))
REPRESENTATION_CONTEXT('','3D')
);
#363=(
GEOMETRIC_REPRESENTATION_CONTEXT(3)
GLOBAL_UNCERTAINTY_ASSIGNED_CONTEXT((#361))
GLOBAL_UNIT_ASSIGNED_CONTEXT((#364,#366,#367))
REPRESENTATION_CONTEXT('','3D')
);
#364=(
LENGTH_UNIT()
NAMED_UNIT(*)
SI_UNIT(.MILLI.,.METRE.)
);
#365=(
LENGTH_UNIT()
NAMED_UNIT(*)
SI_UNIT(.CENTI.,.METRE.)
);
#366=(
NAMED_UNIT(*)
PLANE_ANGLE_UNIT()
SI_UNIT($,.RADIAN.)
);
#367=(
NAMED_UNIT(*)
SI_UNIT($,.STERADIAN.)
SOLID_ANGLE_UNIT()
);
#368=SHAPE_DEFINITION_REPRESENTATION(#369,#370);
#369=PRODUCT_DEFINITION_SHAPE('',$,#372);
#370=SHAPE_REPRESENTATION('',(#220),#362);
#371=PRODUCT_DEFINITION_CONTEXT('part definition',#376,'design');
#372=PRODUCT_DEFINITION('22051-06','Axe \X\D825_120_Brut d''''usinage_',
#373,#371);
#373=PRODUCT_DEFINITION_FORMATION('ANY',$,#378);
#374=PRODUCT_RELATED_PRODUCT_CATEGORY('Axe \X\D825_120_Brut d''''usina
ge_','Axe \X\D825_120_Brut d''''usinage_',(#378));
#375=APPLICATION_PROTOCOL_DEFINITION('international standard',
'automotive_design',2009,#376);
#376=APPLICATION_CONTEXT(
'Core Data for Automotive Mechanical Design Process');
#377=PRODUCT_CONTEXT('part definition',#376,'mechanical');
#378=PRODUCT('22051-06','Axe \X\D825_120_Brut d''''usinage_',$,(#377));
#379=PRESENTATION_STYLE_ASSIGNMENT((#380));
#380=SURFACE_STYLE_USAGE(.BOTH.,#383);
#381=SURFACE_STYLE_RENDERING_WITH_PROPERTIES($,#387,(#382));
#382=SURFACE_STYLE_TRANSPARENT(0.);
#383=SURFACE_SIDE_STYLE('',(#384,#381));
#384=SURFACE_STYLE_FILL_AREA(#385);
#385=FILL_AREA_STYLE('',(#386));
#386=FILL_AREA_STYLE_COLOUR('',#387);
#387=COLOUR_RGB('',0.749019607843137,0.749019607843137,0.749019607843137);
ENDSEC;
END-ISO-10303-21;
